» » »

The Country Song Tabs (ver.2)

Artists:  A B C D E F G H I J K L M N O P Q R S T U V W X Y Z # 

The Country Song Tabs (ver.2)

Blink
Rating:
0/5 (0 votes)

Hard to play? Try these video lessons and learn fast.
                
E|---------0---------||
B|---------1---------||  2X
G|---------0---------||
D|---------2---------||
A|---0-2-3-3---------||
E|-3-----------------||



E|---------00---0---00---0---00---0-------||
B|---------11---1---11---1---11---1-------|| 4X
G|---------00---0---00---0---00---0-------||
D|---------22---2---22---2---22---2-------||
A|---0-2-3-33---0-3-33---0-3-33---0--3----||
E|-3----------3--------3--------3---------||


E|--------------------||
B|--------------------||
G|-----------55555555-||
D|-33333333--55555555-||
A|-33333333--33333333-||
E|-11111111-----------||
            
Hard to play? Try these video lessons and learn fast. | Correct




comments powered by Disqus
↑ Back to top | Tablatures and chords are parodies/interpretations of the original songs. You may use it for private study, scholarship, research or language learning purposes only