» » »

Blink, Stockholm Syndrome Tabs (ver.1)

Artists:  A B C D E F G H I J K L M N O P Q R S T U V W X Y Z # 

Stockholm Syndrome Tabs (ver.1)

Blink Tabs
Rating:
0/5 (0 votes)
Stockholm Syndrome lessons Tabs too difficult? Try these video lessons and learn fast
                Standard Tuning 


Intro                                          
E|----------------------------------------||   
B|----------------------------------------||   
G|--4444---5555---4--4444---2222--7p0-0004||   
D|--5555---5555--5---5555---2222----------||   
A|--2222---3333------2222---0000----------||   
E|--0000-------------3333-----------------||   



Intro pt.2                                          
E|----------------------------------------------------------------------||   
B|---------------12----------------12--------------12-------------------||   
G|--4444--12-12--------5555-12-12------4444--12-12-----2222-------------||   
D|--5555-------12------5555------12----5555-------12---2222--555--------||   
A|--2222---------------3333------------2222------------0000--555--------||   
E|--0000-------------------------------3333------------------335--------||   

2nd time end of this
E-------
B-------
G-5555--
D-5555--
A-3333--
E-------

Chorus
E|-----------------------------------------------||
B|-----------------------------------------------||
G|--4444444-55555555-44444444-22222222-55555555--||
D|--5555555-55555555-55555555-22222222-55555555--||
A|--2222222-33333333-22222222-00000000-33333333--||
E|--0000000----------33333333--------------------||

Chorus pt.2
E|-----------------------------------------------||
B|-----------------------------------------------||
G|--4444444-55555555-44444444-22222222-----------||
D|--5555555-55555555-55555555-22222222-55555555--||
A|--2222222-33333333-22222222-00000000-55555555--||
E|--0000000----------33333333----------33333333--||

Pre-Verse            x2                       
E|-------------------||   ---------------------||
B|-------------------||   ---------------------||
G|-------------------||   ---------------------||
D|--5555/4/5555/4/5--||   --5-7-9-55-4-55-4-5--||
A|--5555/4/5555/4/5--||   --5-7-9-55-4-55-4-5--||
E|--3333/2/3333/2/3--||   --3-5-7-33-2-33-2-3--||

Verse                                            x6
E|-----------------------------------------------||
B|-----------------------------------------------||
G|--4444444-55555555-44444444-22222222-----------||
D|--5555555-55555555-55555555-22222222-55555555--||
A|--2222222-33333333-22222222-00000000-55555555--||
E|-------------------------------------33333333--||
Pm  ... ... ... ... ........


Verse 2
E|-----------------------------------------------||
B|-----------------------------------------------||
G|--4444444-55555555-44444444-22222222-----------||
D|--5555555-55555555-55555555-22222222-55555555--||
A|--2222222-33333333-22222222-00000000-55555555--||
E|--0000000----------33333333----------33333333--||

Verse 2 pt.2
E|-----------------------------------------------||
B|-----------------------------------------------||
G|--4444444-55555555-44444444-22222222-55555555--||
D|--5555555-55555555-55555555-22222222-55555555--||
A|--2222222-33333333-22222222-00000000-33333333--||
E|--0000000----------33333333--------------------||

This is a tab of Stockholm syndrome if it were played live. Is only played with one guitar in a live concert as blink-182 only has 1 guitarist. This is probably the best song on the album, enjoy!
            
Submit corrections

comments powered by Disqus
↑ Back to top | Blink Tabs for Stockholm Syndrome. Lyrics for acoustic guitar and electric guitar. Tablatures and chords are parodies/interpretations of the original songs. You may use it for private study, scholarship, research or language learning purposes only