>
 >
Roller Coaster

Roller Coaster Guitar Tabs

Blink - Roller Coaster chords, tabs, tablatures, lyrics

Guitar lessons | Add/correct | Request | Top 50 tabs Artists:  A B C D E F G H I J K L M N O P Q R S T U V W X Y Z 0-9

Roller Coaster Guitar Tabs – Blink

CD, Sheet music, Poster

Do you like Roller Coaster? Share with your friends now
Tabs

All Guitars Standard Tuning

Intro

Guitar 1				Semi Clean
e---------|---------|---------|---------|---------||---------|---------||
b---------|---------|---------|---------|---------||---------|---------||
g-6---6-7-|-6-------|-6---6-7-|-6-------|---------||---------|---------||
d---7-----|---7---7-|---7-----|---7---7-|-7-------||---7---7-|---7---7-||
a---------|-----0---|---------|-----0---|-0-------||-00--00--|-00--00--||
E---------|---------|---------|---------|---------||---------|---------||
Guitar 2					       ||
e---------|---------|---------|---------|---------||---------|---------||
b---------|---------|---------|---------|---------||---------|---------||
g---------|---------|---------|---------|---------||---------|---------||
d---------|---------|---------|---------|-7~------||---------|---------||
a-4-4-4-4-|-4-4-4-4-|-5-5-5-5-|-5-5-5-5-|-0~------||---------|---------||
E-5-5-5-5-|-5-5-5-5-|-5-5-5-5-|-5-5-5-5-|---------||---------|---------||


Chorus

Guitar 1
e---------|---------|---------|---------|
b---------|---------|---------|---------|
g---------|---------|---------|---------|
d---7---7-|---7---7-|---7---7-|---7---7-|
a-00--00--|-00--00--|-00--00--|-00--00--|
E---------|---------|---------|---------|
			    First ending  Second Ending
e---------|---------|---------|---------||---------||
b---------|---------|---------|--------o||---------||
g---------|---------|---------|---------||---------||
d---7---7-|---7---7-|---7---7-|---7---7-||---------||
a-55--55--|-55--55--|---------|-55--55-o||-5-------||
E---------|---------|-77--77--|---------||---------||


Interlude

Guitar 1
e---------|---------|---------|---------|
b---------|---------|---------|---------|
g---------|---------|---------|---------|
d---------|---------|---------|---------|
a-4-0-4-5-|-4-000000|-4-0-4-5-|-4-000000|
E---------|---------|---------|---------|
Guitar 2			  |
e---------|---------|---------|---------|
b---------|---------|---------|---------|
g---------|---------|---------|---------|
d-7-777777|-7-777777|-7-777777|-7-777777|
a-7-777777|-7-777777|-7-777777|-7-777777|
E-5-555555|-5-555555|-5-555555|-5-555555|


e---------|---------|---------|---------||
b---------|---------|---------|---------||
g---------|---------|---------|---------||
d---------|---------|---------|---------||
a-4-0-4-5-|-4-0-0-2-|-4-0-4-5-|-4-000000||
E---------|---------|---------|---------||
			  ||  X2
e---------|---------|---------|---------||
b---------|---------|---------|---------||
g-9-999999|-9-999999|-7-777777|-7-777777||
d-9-999999|-9-999999|-7-777777|-7-777777||
a-7-777777|-7-777777|-5-555555|-5-555555||
E---------|---------|---------|---------||


Verse 

Guitar 1
e---------|---------|---------|---------|
b---------|---------|---------|---------|
g---------|---------|---------|---------|
d-2-222222|-7-777777|-4-444444|-7-777777| X4
a-0-000000|-5-555555|-2-222222|-5-555555|
E---------|---------|---------|---------|

*Repeat Interlude once*

*Repeat Verse*

*Repeat Chrous*


Bridge
Guitar 1 (with synth effects)             Pick Slide
e---------|---------|---------|---------||----------||
bo--------|---------|---------|--------o||----------||
g---------|---------|---------|---------||----------||
d-7~------|---------|---------|---------||---/--/---||
ao0~------|---------|---------|--------o||--/--/----||
E---------|---------|---------|---------||-/--/-----||

Bass Arranged for guitar
e---------|---------|---------|---------|
b---------|---------|---------|---------|
g---------|---------|---------|---------|
d---------|---------|---------|---------|
a---------|---------|---------|---------|
E-5-555555|-5-555555|-5-555555|-5-555555|
			      First Ending
e---------|---------|---------|----------||---------||
b---------|---------|---------|---------o||---------||
g---------|---------|---------|----------||---------||
d---------|---------|---------|----------||---------||
a---------|---------|-5-555555|-5-555555o||-5-55557-||
E-0-000000|-0-000000|---------|----------||---------||


*Repeat Verse*

Outro/Chorus
(With Synth effects)
Guitar 1
e---------|---------|---------|---------|
b---------|---------|---------|---------|
g---------|---------|---------|---------|
d-7-777777|-7-777777|-7-777777|-7-777777|
a-0-000000|-0-000000|-0-000000|-0-000000|
E---------|---------|---------|---------|

e---------|---------|---------|---------|
b---------|---------|---------|---------|
g---------|---------|---------|---------|
d-7-777777|-7-777777|-7-777777|-7-777777| X2
a-5-555555|-5-555555|-x-xxxxxx|-5-555555|
E---------|---------|-7-777777|---------|

*Repeat Intro*

End on              Segue intro 
              Reckless Ababdon
e---------|---------|---------||
b---------|---------|---------||
g---------|---------|---------||
d-7~------|---------|---------||
a-0~------|---------|---------||
E---------|---------|---------||

By John Black





Comments


Popular Blink tabs & chords
Carousel Chords
Anthem Part Two 1 Tabs
Dammit Tabs
Dont Leave Me Tabs
Give Me One Good Reason Tabs
Go 100% Tabs
I Miss You Tabs
M+Ms 1 Tabs
Stockholm Syndrome Tabs
What Went Wrong 1 Tabs


Song lyrics



↑ Back to top | Tablatures and chords are parodies/interpretations of the original songs. You may use it for private study, scholarship, research or language learning purposes only
© 2014 AZChords.com Contact us | Privacy policy | DMCA | Add/correct tabs | Request tabs | Top 50 tabs