» » »

Pathetic Tabs (ver.3)

Artists:  A B C D E F G H I J K L M N O P Q R S T U V W X Y Z # 

Pathetic Tabs (ver.3)

Blink
Rating:
0/5 (0 votes)

Tabs too difficult? Try these video lessons and learn fast.
                Intro pt.1 (X3)
e|-----------------------------------------------------|
b|-----------------------------------------------------|
g|--9-11---------9-11---------9-11----------8---8---8--|
d|-------9-9-9-9------9-9-9-9------9-9-9-9----9---9----|
a|-----------------------------------------------------|
e|-----------------------------------------------------|

Intro pt.2
e|--------------------------------------------------------------------|
b|--------------------------------------------------------------------|
g|--9-11-----------9-11-------------------------11-11-11-11-11-9-9-9--|
d|---------9-9-9-9-------9-9-9-9---9-9-9-9-9-9--11-11-11-11-11-9-9-9--|
a|---------------------------------9-9-9-9-9-9---9--9--9--9--9-7-7-7--|
e|---------------------------------7-7-7-7-7-7------------------------|

Verse (X3)
e|-----------------------------------|
b|-----------------------------------|
g|-------------11-11-11-11-11-9-9-9--|
d|-9-9-9-9-9-9-11-11-11-11-11-9-9-9--|
a|-9-9-9-9-9-9-9--9--9--9--9--7-7-7--|
e|-7-7-7-7-7-7-----------------------|

Chorus (X2)
e|------------------------------------------------|
b|------------------------------------------------|
g|-----4---------4--------------------------------|
d|-6-6-4-4-4-4-4-4-2-2-2-2-2-2-2-2-2-2-2-2-2-2-2--|
a|-6-6-2-4-4-4-4-2-2-2-2-2-2-2-2-2-2-2-2-2-2-2-2--|
e|-4-4---2-2-2-2---0-0-0-0-0-0-0-0-0-0-0-0-0-0-0--|

Riff 1 (X3)
e|-----------------------------------------------------|
b|-----------------------------------------------------|
g|--9-11---------9-11---------9-11----------8---8---8--|
d|-------9-9-9-9------9-9-9-9------9-9-9-9----9---9----|
a|-----------------------------------------------------|
e|-----------------------------------------------------|

Riff 2
e|--------------------------------------------------------------------|
b|--------------------------------------------------------------------|
g|--9-11-----------9-11-------------------------11-11-11-11-11-9-9-9--|
d|---------9-9-9-9-------9-9-9-9---9-9-9-9-9-9--11-11-11-11-11-9-9-9--|
a|---------------------------------9-9-9-9-9-9---9--9--9--9--9-7-7-7--|
e|---------------------------------7-7-7-7-7-7------------------------|

Riff 3 (X3)
e|-----------------------------------|
b|-----------------------------------|
g|-------------11-11-11-11-11-9-9-9--|
d|-9-9-9-9-9-9-11-11-11-11-11-9-9-9--|
a|-9-9-9-9-9-9-9--9--9--9--9--7-7-7--|
e|-7-7-7-7-7-7-----------------------|

Riff 4
e|----------------------------------------------------------------------|
b|----------------------------------------------------------------------|
g|-------------------4-----------------4--------------------------------|
d|-6-6-6-6-6-6-6-6-6-4-4-4-4-4-4-4-4-4-4-2-2-2-2-2-2-2-2-2-2-2-2-2-2-2--|
a|-6-6-6-6-6-6-6-6-6-2-4-4-4-4-4-4-4-4-2-2-2-2-2-2-2-2-2-2-2-2-2-2-2-2--|
e|-4-4-4-4-4-4-4-4-4---2-2-2-2-2-2-2-2---0-0-0-0-0-0-0-0-0-0-0-0-0-0-0--|
    pm..............    pm............     pm..........................

Riff 5
e|----------------------------------------------------------------------|
b|----------------------------------------------------------------------|
g|-------------------4-----------------4--------------------------------|
d|-6-6-6-6-6-6-6-6-6-4-4-4-4-4-4-4-4-4-4-2-2-2-2-2-2-2-2-2-2-2-2-2-2-2--|
a|-6-6-6-6-6-6-6-6-6-2-4-4-4-4-4-4-4-4-2-2-2-2-2-2-2-2-2-2-2-2-2-2-2-2--|
e|-4-4-4-4-4-4-4-4-4---2-2-2-2-2-2-2-2---0-0-0-0-0-0-0-0-0-0-0-0-0-0-0--|
    pm..............    pm............     

Riff 6 (X4)
e|-----------------------------------------------------|
b|-----------------------------------------------------|
g|--9-11---------9-11---------9-11----------8---8---8--|
d|-------9-9-9-9------9-9-9-9------9-9-9-9----9---9----|
a|-----------------------------------------------------|
e|-----------------------------------------------------|

Riff 7 (X2)
e|------------------------------------------------|
b|------------------------------------------------|
g|-----4---------4--------------------------------|
d|-6-6-4-4-4-4-4-4-2-2-2-2-2-2-2-2-2-2-2-2-2-2-2--|
a|-6-6-2-4-4-4-4-2-2-2-2-2-2-2-2-2-2-2-2-2-2-2-2--|
e|-4-4---2-2-2-2---0-0-0-0-0-0-0-0-0-0-0-0-0-0-0--|

Outro
e|--------|
b|--------|
g|--------|
d|-9-9-9--|
a|-9-9-9--|
e|-7-7-7--|

Well that's it
            
Tabs too difficult? Try these video lessons and learn fast.




comments powered by Disqus
↑ Back to top | Tablatures and chords are parodies/interpretations of the original songs. You may use it for private study, scholarship, research or language learning purposes only