» » »

Pathetic Tabs (ver.1)

Artists:  A B C D E F G H I J K L M N O P Q R S T U V W X Y Z # 

Pathetic Tabs (ver.1)

Blink
Rating:
0/5 (0 votes)

Hard to play? Try these video lessons and learn fast.
                Intro:
e|----------------------------------------------------|
B|----------------------------------------------------|
G|-9h11---------9h11---------9h11---------8---8---8---|
D|------9-9-9-9------9-9-9-9------9-9-9-9---9---9---9-|
A|----------------------------------------------------|
E|----------------------------------------------------|

Verse:
e|-------------------------------------------------------------------------|
B|-------------------------------------------------------------------------|
G|---------------------------------11-11-11-11-11-11-11-11-9-9-9-9-9-9-9-9-|
D|-9-9-9-9-9-9-9-9-9-9-9-9-9-9-9-9-11-11-11-11-11-11-11-11-9-9-9-9-9-9-9-9-|
A|-9-9-9-9-9-9-9-9-9-9-9-9-9-9-9-9--9--9--9--9--9--9--9--9-7-7-7-7-7-7-7-7-|
E|-7-7-7-7-7-7-7-7-7-7-7-7-7-7-7-7-----------------------------------------|

Chorus:
e|-------------------------------------------------------------------
B|-------------------------------------------------------------------
G|-----------------------------4-4-----------------------------4-4---
D|-6-6-6-6-6-6-6-6-6-6-6-6-6-6-4-4-4-4-4-4-4-4-4-4-4-4-4-4-4-4-4-4---
A|-6-6-6-6-6-6-6-6-6-6-6-6-6-6-2-2-4-4-4-4-4-4-4-4-4-4-4-4-4-4-2-2---
E|-4-4-4-4-4-4-4-4-4-4-4-4-4-4-----2-2-2-2-2-2-2-2-2-2-2-2-2-2-------

e|------------------------------|
B|------------------------------|
G|------------------------------|
D|-2-2-2-2-2-2-2-2-2-2-2-2-2-2--|
A|-2-2-2-2-2-2-2-2-2-2-2-2-2-2--|
E|-0-0-0-0-0-0-0-0-0-0-0-0-0-0--|
            
Hard to play? Try these video lessons and learn fast. | Correct




comments powered by Disqus
↑ Back to top | Tablatures and chords are parodies/interpretations of the original songs. You may use it for private study, scholarship, research or language learning purposes only