» » »

Blink, Online Songs Tabs (ver.1)

Artists:  A B C D E F G H I J K L M N O P Q R S T U V W X Y Z # 

Online Songs Tabs (ver.1)

Blink Tabs
 Rating:
4/5 (4 votes)
Online Songs lessons Tabs too difficult? Try these video lessons and learn fast
                




Intro (Chords represent what bass plays)
 A5   B5   D5   E5   A5   B5   D5   E5
e----|----|----|----|----|----|----|----|
b----|----|----|----|----|----|----|----|
g----|----|----|----|----|----|----|----|
d----|----|----|----|----|----|----|----|
a----|----|----|----|----|----|----|----|
E----|----|----|----|----|----|----|----|

e-----------------|-----------------|-----------------|-----------------|
b-----------------|-----------------|-----------------|-----------------|
g-----------------|-----------------|-----------------|-----------------|
d-----------------|-----------------|-----------------|-----------------|
a---4-----7---4---|---5-----5---5---|---4-----7---4---|---5-----5---5---|
E-5---5-----5---5-|-5---5-5---5---5-|-5---5-5---5---5-|-0---0-0-------0-|

e-----------------|-----------------|-----------------|--------|--------|
b-----------------|-----------------|-----------------|--------|--------|
g-----------------|-----------------|-----------------|--------|--------|
d-----------------|-----------------|-----------------|--------|--------|
a---4-----7---4---|---5-----5---5---|---4-----7---4---|-2------|--------|
E-5---5-5---5---5-|-5---5-5---5---5-|-5---5-5---5---0-|-0------|--------|


Interlude (Pm six string)
e-----------------|-----------------|-----------------|-----------------|
b-----------------|-----------------|-----------------|-----------------|
g-----------------|-----------------|-----------------|-----------------|
d-----------------|-----------------|-----------------|-----------------|
a---4-----7---4---|---5-----5---5---|---4-----7---4---|---5-----5---5---|
E-5---5-5---5---5-|-5---5-5---5---5-|-5---5-5---5---0-|-0---0-0---0---0-|

e-----------------|-----------------|-----------------|-----------------|
b-----------------|-----------------|-----------------|-----------------|
g-----------------|-----------------|-----------------|-----------------|
d-----------------|-----------------|-----------------|---7---7----7--0-|
a---4-----7---4---|---5-----5---5---|---4-----7---4---|---5---5----5--0-|
E-5---5-5---5---5-|-5---5-5---5---5-|-5---5-5---5---0-|-0---------------|


Verse
 A5   D5   F#5 E5   A5        D5   F#5 E5   A5
e----|----|--------|----|----|----|--------|----|
b----|----|--------|----|----|----|--------|----|
g----|----|--------|----|----|----|--------|----|
d----|----|--------|----|----|----|--------|----|
a----|----|--------|----|----|----|--------|----|
E----|----|--------|----|----|----|--------|----|


Repeat Interlude

 
Verse
 A5   D5   F#5 E5   A5        D5   F#5 E5   A5 Pickslide
e----|----|--------|----|----|----|--------|--------|
b----|----|--------|----|----|----|--------|--------|
g----|----|--------|----|----|----|--------|--------|
d----|----|--------|----|----|----|--------|--------|
a----|----|--------|----|----|----|--------|--------|
E----|----|--------|----|----|----|--------|-x\x\x\-|


Chorus
e----------|----------|----------|----------|
b----------|----------|----------|----------|
g-7-7-7777-|----------|----------|----------|
d-7-7-7777-|-7-7-7777-|-9-9-9997-|-7-7-7777-|
a-5-5-5555-|-7-7-7777-|-7-7-7775-|-5-5-5555-|
E----------|-5-5-5555-|----------|----------|

e----------|----------|----------|----------|
b----------|----------|----------|----------|
g-7-7-7777-|----------|----------|----------|
d-7-7-7777-|-7-7-7777-|-9-9-9997-|-7-7-7777-|
a-5-5-5555-|-7-7-7777-|-7-7-7775-|-5-5-5555-|
E----------|-5-5-5555-|----------|----------|


Repeat Verse


Chorus
e----------|----------|----------|----------|
b----------|----------|----------|----------|
g-7-7-7777-|----------|----------|----------|
d-7-7-7777-|-7-7-7777-|-9-9-9997-|-7-7-7777-|
a-5-5-5555-|-7-7-7777-|-7-7-7775-|-5-5-5555-|
E----------|-5-5-5555-|----------|----------|

e----------|----------|----------|----------|
b----------|----------|----------|----------|
g-7-7-7777-|----------|----------|----------|
d-7-7-7777-|-7-7-7777-|-9-9-9997-|-7-7-7777-|
a-5-5-5555-|-7-7-7777-|-7-7-7775-|-5-5-5555-|
E----------|-5-5-5555-|----------|----------|

e----------|----------|----------|----------|
b----------|----------|----------|----------|
g-7-7-7777-|----------|----------|----------|
d-7-7-7777-|-7-7-7777-|-9-9-9997-|-7-7-7777-|
a-5-5-5555-|-7-7-7777-|-7-7-7775-|-5-5-5555-|
E----------|-5-5-5555-|----------|----------|

e----------|----------|----------|----------|
b----------|----------|----------|----------|
g-7-7-7777-|----------|----------|----------|
d-7-7-7777-|-7-7-7777-|---9-9999-|-7-7-7777-|
a-5-5-5555-|-7-7-7777-|---7-7777-|-5-5-5555-|
E----------|-5-5-5555-|----------|----------|

Bridge X2
e----------|----------|----------|----------|
b----------|----------|----------|----------|
g----------|----------|----------|----------|
d----------|-7-7------|----------|----------|
a-4-4------|-5-5------|-7777777--|-22222222-|
E-2-2------|----------|-55555550-|-00000000-|

Cont. X2
e----------|----------|----------|----------|
b----------|----------|----------|----------|
g----------|----------|----------|----------|
d----------|-77777770-|----------|----------|
a-44444440-|-55555550-|-77777777-|-22222222-|
E-2222222--|----------|-55555555-|-00000000-|

Chorus/Outro
e----------|----------|----------|----------|
b----------|----------|----------|----------|
g-7-7-7777-|----------|----------|----------|
d-7-7-7777-|-7-7-7777-|-9-9-9997-|-7-7-7777-|
a-5-5-5555-|-7-7-7777-|-7-7-7775-|-5-5-5555-|
E----------|-5-5-5555-|----------|----------|

e----------|----------|----------|----------|
b----------|----------|----------|----------|
g-7-7-7777-|----------|----------|----------|
d-7-7-7777-|-7-7-7777-|-9-9-9997-|-7-7-7777-|
a-5-5-5555-|-7-7-7777-|-7-7-7775-|-5-5-5555-|
E----------|-5-5-5555-|----------|----------|

e----------|----------|----------|----------|
b----------|----------|----------|----------|
g-7-7-7777-|----------|----------|----------|
d-7-7-7777-|-7-7-7777-|-9-9-9997-|-7-7-7777-|
a-5-5-5555-|-7-7-7777-|-7-7-7775-|-5-5-5555-|
E----------|-5-5-5555-|----------|----------|

e----------|----------|----------|----------|----------|----|----|
b----------|----------|----------|----------|----------|----|----|
g-7-7-7777-|----------|----------|----------|----------|----|----|
d-7-7-7777-|-7-7-7777-|---9-9999-|-7-7-7777-|--------7~|-~--|-~--|
a-5-5-5555-|-7-7-7777-|---7-7777-|-5-5-5555-|-4-4-44-5~|-~--|-~--|
E----------|-5-5-5555-|----------|----------|-2-2-220--|----|----|

By John Black
Please rate/comment
            
Submit corrections

comments powered by Disqus
↑ Back to top | Blink Tabs for Online Songs. Lyrics for acoustic guitar and electric guitar. Tablatures and chords are parodies/interpretations of the original songs. You may use it for private study, scholarship, research or language learning purposes only