» » »

Blink, Obvious Tabs (ver.3)

Artists:  A B C D E F G H I J K L M N O P Q R S T U V W X Y Z # 

Obvious Tabs (ver.3)

Blink Tabs
 Rating:
4/5 (4 votes)
Obvious lessons Tabs too difficult? Try these video lessons and learn fast
                (100)
this song took me a lot of time please rate me!!!!!!!!!!!!!!!!!!!!!
Intro
C#|------------------------------------------------------------------
G#|------------------------------------------------------------------
E|--4~~~--4---4---4--------------------------------------------------
B|--5~~~--5---5---5--5-5-5--5-5-5------------------------------------ x5
F#|-2~~~--2---2---2--5-5-5--5-5-5------------------------------------
C#|-0~~~--0---0---0--3-3-3--3-3-3------------------------------------
    D     D   D   U  D D U  U D U

First Verse
C#|------------------------------------------------------------------
G#|------------------------------------------------------------------
E|--4~~~~~~~~--------------------------------------------------------
B|--5~~~~~~~~--------5~~~~~~~~--------------------------------------- x2
F#|-2~~~~~~~~--------5~~~~~~~~---------------------------------------
C#|-0~~~~~~~~--------3~~~~~~~~---------------------------------------

Chorus
C#|------------------------------------------------------------------
G#|------------------------------------------------------------------
E|-------------------------------------------------------------------
B|--5~~~~~~~~~~~~~~~~--999-777-101010-222-4444----------------------- x1
F#|-x------------------xxx-xxx-x-x-x--222-xxxx-----------------------
C#|-3~~~~~~~~~~~~~~~~--777-555-8-8-8--000-2222-----------------------

C#|------------------------------------------------------------------
G#|------------------------------------------------------------------
E|-------------------------------------------------------------------
B|--5555555555555555-999-777-101010-222-4444------------------------- x1
F#|-xxxxxxxxxxxxxxxx-xxx-xxx-x-x-x--222-xxxx-------------------------
C#|-3333333333333333-777-555-8-8-8--000-2222-------------------------

Intro
C#|------------------------------------------------------------------
G#|------------------------------------------------------------------
E|--4~~~--4---4---4--------------------------------------------------
B|--5~~~--5---5---5--5-5-5--5-5-5------------------------------------ x4
F#|-2~~~--2---2---2--5-5-5--5-5-5------------------------------------
C#|-0~~~--0---0---0--3-3-3--3-3-3------------------------------------
    D     D   D   U  D D U  U D U

Second Verse
C#|------------------------------------------------------------------
G#|------------------------------------------------------------------
E|--4~~~~~~~~--------------------------------------------------------
B|--5~~~~~~~~--------5~~~~~~~~--------------------------------------- x2
F#|-2~~~~~~~~--------5~~~~~~~~---------------------------------------
C#|-0~~~~~~~~--------3~~~~~~~~---------------------------------------

Chorus
C#|------------------------------------------------------------------
G#|------------------------------------------------------------------
E|-------------------------------------------------------------------
B|--5~~~~~~~~~~~~~~~~--999-777-101010-222-4444----------------------- x1
F#|-x------------------xxx-xxx-x-x-x--222-xxxx-----------------------
C#|-3~~~~~~~~~~~~~~~~--777-555-8-8-8--000-2222-----------------------

C#|------------------------------------------------------------------
G#|------------------------------------------------------------------
E|-------------------------------------------------------------------
B|--5555555555555555-999-777-101010-222-4444------------------------- x3
F#|-xxxxxxxxxxxxxxxx-xxx-xxx-x-x-x--222-xxxx-------------------------
C#|-3333333333333333-777-555-8-8-8--000-2222-------------------------

Bridge - Note: The 6 is more of an optional.  I don't think Tom plays
the 6 live, I'm not even sure if he plays this in any version.
C#|------------------------------------------------------------------
G#|------------------------------------------------------------------
E|--6~~~~------------------------------------------------------------
B|--5~~~~------------------------------------------------------------ x1
F#|-4~~~~------------------------------------------------------------
C#|------------------------------------------------------------------

Note: The numbers in the brackets are an optional.  You don`t have to play them,
it just sounds to me like Tom does.
C#|------------------------------------------------------------------
G#|------------------------------------------------------------------
E|-------555---------------------------------------------------------
B|--555--555--222-666-55-66------------------------------------------ x6
F#|-555--333--222-666-55-66------------------------------------------
C#|-333-(333)-000-444-33-44------------------------------------------

Ending - Note: The numbers in the brackets are an optional.  You don`t have to
play them, it just sounds to me like Tom does.
C#|------------------------------------------------------------------
G#|------------------------------------------------------------------
E|-------------------------------------------------------------------
B|--5-5-5-5-5-5-5-5--4-4-4-4-4-4-4-4--------------------------------- x1
F#|-5-5-5-5-5-5-5-5--5-5-5-5-5-5-5-5---------------------------------
C#|-3-3-3-3-3-3-3-3--2-2-2-2-2-2-2-2---------------------------------

C#|------------------------------------------------------------------
G#|------------------------------------------------------------------
E|----------------------------5-5-5-5--------------------------------
B|--5-5-5-5-5-5-5-5--4-4-4-4--5-5-5-5-------------------------------- x1
F#|-5-5-5-5-5-5-5-5--5-5-5-5--3-3-3-3--------------------------------
C#|-3-3-3-3-3-3-3-3--2-2-2-2-(3-3-3-3)-------------------------------

C#|------------------------------------------------------------------
G#|------------------------------------------------------------------
E|-------------------------------------------------------------------
B|--5-5-5-5-5-5-5-5--4-4-4-4-4-4-4-4--------------------------------- x1
F#|-5-5-5-5-5-5-5-5--5-5-5-5-5-5-5-5---------------------------------
C#|-3-3-3-3-3-3-3-3--2-2-2-2-2-2-2-2---------------------------------

C#|------------------------------------------------------------------
G#|------------------------------------------------------------------
E|----------------------------5-5-5-5--------------------------------
B|--5-5-5-5-5-5-5-5--4-4-4-4--5-5-5-5-------------------------------- x1
F#|-5-5-5-5-5-5-5-5--5-5-5-5--3-3-3-3--------------------------------
C#|-3-3-3-3-3-3-3-3--2-2-2-2-(3-3-3-3)-------------------------------

C#|------------------------------------------------------------------
G#|------------------------------------------------------------------
E|-------------------------------------------------------------------
B|--5-5-5-5-5-5-5-5--4-4-4-4-4-4-4-4--------------------------------- x1
F#|-5-5-5-5-5-5-5-5--5-5-5-5-5-5-5-5---------------------------------
C#|-3-3-3-3-3-3-3-3--2-2-2-2-2-2-2-2---------------------------------

C#|------------------------------------------------------------------
G#|------------------------------------------------------------------
E|----------------------------5-5-5-5--------------------------------
B|--5-5-5-5-5-5-5-5--4-4-4-4--5-5-5-5-------------------------------- x1
F#|-5-5-5-5-5-5-5-5--5-5-5-5--3-3-3-3--------------------------------
C#|-3-3-3-3-3-3-3-3--2-2-2-2-(3-3-3-3)-------------------------------

C#|------------------------------------------------------------------
G#|------------------------------------------------------------------
E|-------------------------------------------------------------------
B|--5-5-5-5-5-5-5-5--4-4-4-4-4-4-4-4--------------------------------- x1
F#|-5-5-5-5-5-5-5-5--5-5-5-5-5-5-5-5---------------------------------
C#|-3-3-3-3-3-3-3-3--2-2-2-2-2-2-2-2---------------------------------

C#|------------------------------------------------------------------
G#|------------------------------------------------------------------
E|----------------------------5-5-5-5--------------------------------
B|--5-5-5-5-5-5-5-5--4-4-4-4--5-5-5-5-------------------------------- x1
F#|-5-5-5-5-5-5-5-5--5-5-5-5--3-3-3-3--------------------------------
C#|-3-3-3-3-3-3-3-3--2-2-2-2-(3-3-3-3)-------------------------------

End On
C#|------------------------------------------------------------------
G#|------------------------------------------------------------------
E|--4~~~~~~~~--------------------------------------------------------
B|--5~~~~~~~~-------------------------------------------------------- x1
F#|-2~~~~~~~~--------------------------------------------------------
C#|-0~~~~~~~~--------------------------------------------------------
            
Submit corrections

comments powered by Disqus
↑ Back to top | Blink Tabs for Obvious. Lyrics for acoustic guitar and electric guitar. Tablatures and chords are parodies/interpretations of the original songs. You may use it for private study, scholarship, research or language learning purposes only