» » »

Blink, Obvious Tabs (ver.2)

Artists:  A B C D E F G H I J K L M N O P Q R S T U V W X Y Z # 

Obvious Tabs (ver.2)

Blink Tabs
Rating:
0/5 (0 votes)
Obvious lessons Tabs too difficult? Try these video lessons and learn fast
                Blink 182 - Obvious

Tuning : 1 1/2 steps down
C#, F#, B, E, G# ,C#


Intro(Slight Distortion)

|----------------------|
|----------------------|
|-4--4-4--5-5-5-5-5-5--|
|-5--5-5--5-5-5-5-5-5--|  x2 
|-2--2-2--3-3-3-3-3-3--|
|-0--0-0---------------|
                  
Intro 2 (Distortion)

|----------------------|
|----------------------|
|-4--4-4--5-5-5-5-5-5--|
|-5--5-5--5-5-5-5-5-5--|  x4
|-2--2-2--3-3-3-3-3-3--|
|-0--0-0---------------|

Verse (weird effects)(clean tone)
|-------------------|
|-------------------|
|-4----5----4----5--|
|-5----5----5----5--|
|-2----3----2----3--|
|-0---------0-------|

Chorus
|-------------------------------------------------------------------|
|-------------------------------------------------------------------|
|-------------------------------------------------------------------|
|-------------------------------------------------------------------| x1
|-5-let ring for 2 measures-----------------------------------------|  
|-3--------------------------------7-7-7-5-5-5-8-8-8-0-0-0-2-2-2-2--|

|-------------------------------------------------------------------|
|-------------------------------------------------------------------|
|-------------------------------------------------------------------|
|-------------------------------------------------------------------| x1
|-5-5-5-5-5-5-5-5-5-5-5-5-5-5-5-5-----------------------------------|  
|-3-3-3-3-3-3-3-3-3-3-3-3-3-3-3-3--7-7-7-5-5-5-8-8-8-0-0-0-2-2-2-2--|

 

(Slight Distortion)
|----------------------|
|----------------------|
|-4--4-4--5-5-5-5-5-5--|
|-5--5-5--5-5-5-5-5-5--|  x1
|-2--2-2--3-3-3-3-3-3--|
|-0--0-0---------------|

(Distortion)
|----------------------|
|----------------------|
|-4--4-4--5-5-5-5-5-5--|
|-5--5-5--5-5-5-5-5-5--|  x3
|-2--2-2--3-3-3-3-3-3--|
|-0--0-0---------------|

Verse (weird effects)(clean tone)
|-------------------|
|-------------------|
|-4----5----4----5--|
|-5----5----5----5--|
|-2----3----2----3--|
|-0---------0-------|

Chorus
|-------------------------------------------------------------------|
|-------------------------------------------------------------------|
|-------------------------------------------------------------------|
|-------------------------------------------------------------------| x1
|-5-let ring for 2 measures-----------------------------------------|  
|-3--------------------------------7-7-7-5-5-5-8-8-8-0-0-0-2-2-2-2--|

|-------------------------------------------------------------------|
|-------------------------------------------------------------------|
|-------------------------------------------------------------------|
|-------------------------------------------------------------------| x3
|-5-5-5-5-5-5-5-5-5-5-5-5-5-5-5-5-----------------------------------|  
|-3-3-3-3-3-3-3-3-3-3-3-3-3-3-3-3--7-7-7-5-5-5-8-8-8-0-0-0-2-2-2-2--|


Bridge (break)
Slight distortion
|--------------------------------|
|--------------------------------|
|--------------------------------|
|-5-5-5-5-5-5-5-2-2-6-6-6-55-66--|  x2
|-5-5-5-5-5-5-5-2-2-6-6-6-55-66--|
|-3-3-3-3-3-3-3-0-0-4-4-4-33-44--|

Distortion
|--------------------------------|
|--------------------------------|
|--------------------------------|
|-5-5-5-5-5-5-5-2-2-6-6-6-55-66--|  x2
|-5-5-5-5-5-5-5-2-2-6-6-6-55-66--|
|-3-3-3-3-3-3-3-0-0-4-4-4-33-44--|

Outro(0's are repeat symbols)
|---------------------------------------------------------------------|
|---------------------------------------------------------------------|
|-0-------------------------------------------------------------------|
|---5-5-5-5-5-5-5-5-5-5-5-5-5-5-5-5--4-4-4-4-4-4-4-4-4-4-4-4-4-4-4-4--|  
|-0-5-5-5-5-5-5-5-5-5-5-5-5-5-5-5-5--5-5-5-5-5-5-5-5-5-5-5-5-5-5-5-5--|
|---3-3-3-3-3-3-3-3-3-3-3-3-3-3-3-3--2-2-2-2-2-2-2-2-2-2-2-2-2-2-2-2--|
I saw you again and again and again...

|---------------------------------------------------------------------|
|---------------------------------------------------------------------|
|--------------------------------------------------5-5-5-5-5-5-5-5--0-|
|-5-5-5-5-5-5-5-5-5-5-5-5-5-5-5-5--4-4-4-4-4-4-4-4-5-5-5-5-5-5-5-5----|  x6
|-5-5-5-5-5-5-5-5-5-5-5-5-5-5-5-5--5-5-5-5-5-5-5-5-3-3-3-3-3-3-3-3--0-|
|-3-3-3-3-3-3-3-3-3-3-3-3-3-3-3-3--2-2-2-2-2-2-2-2--------------------|

end on 

|----|
|----|
|-4--|
|-5--|
|-2--|
|-0--|
            

comments powered by Disqus
↑ Back to top | Blink Tabs for Obvious. Lyrics for acoustic guitar and electric guitar. Tablatures and chords are parodies/interpretations of the original songs. You may use it for private study, scholarship, research or language learning purposes only