» » »

Blink, Mutt Tabs (ver.1)

Artists:  A B C D E F G H I J K L M N O P Q R S T U V W X Y Z # 

Mutt Tabs (ver.1)

Blink Tabs
Rating:
0/5 (0 votes)
Mutt lessons Tabs too difficult? Try these video lessons and learn fast
                mutt


Intro (D5 second time around)
  A5
 (D5)
  /  /////   /  /////   / /////    / /////
e----------|----------|----------|----------|
b----2-----|----2-----|----2-----|----2-----|
g-2--------|-2--------|-2--------|-2--------|
d--------2-|--------2-|--------2-|--------2-|
a----------|----------|----------|----------|
E----------|----------|----------|----------|

Verse Part 1
e-------------|--------------|-------------|----------------|
b-------------|--------------|-------------|----------------|
g----2-----2--|----2/4---2/4-|----6-----6--|----2/4-----2/4-|
d-------------|--------------|-------------|-22------22-----|
a-00----00----|-00----00-----|-04----44----|----------------|
E-------------|--------------|-------------|----------------|
Pm..    ..      ..    ..       ..    ..      ..      ..

Verse Part Two
e---------|---------|---------|---------|
b---------|---------|---------|---------|
g-2-22222-|-2-22222-|---------|---------|
d-2-22222-|-2-22222-|-4-44444-|-2-22222-|
a-0-00000-|-0-00000-|-4-44444-|-2-22222-|
E---------|---------|-2-22222-|-0-00000-|

After Verse
e---------|---------|---------|---------|
b---------|---------|---------|---------|
g-7-77777-|-7-77777-|-7-77777-|-9-99999-|
d-7-77777-|-7-77777-|-7-77777-|-9-99999-|
a-5-55555-|-5-55555-|-5-55555-|-7-77777-|
E---------|---------|---------|---------|

Interlude/Chorus
e----------|----------|----------|----------|
b----------|----------|----------|----------|
g----------|----------|----------|----------|
d-7-77777--|-7-77777--|-7-77777--|-7-777-77-| X6
a-x-xxxxx--|-x-xxxxx--|-x-xxxxx--|-5-554-44-|
E-5-55555--|-5-55555--|-7-77777--|----------|

Repeat Intro

Repeat Verse
Repeat Verse Part Two
Repeat After Verse
Repeat Interlude/Chorus


Break
e-------|-------|-------|-------|
b-------|-------|-------|-------|
g-------|-------|-------|-------|
d-------|-------|-------|-77-66-|
a-77----|-------|-99----|-55-44-|
E-55----|-------|-77----|-------|
Pm..              ..      .. ..

Repeat Intro

Repeat Chorus X4

Outro
e-------|-----|-------|--------|
b-------|-----|-------|--------|
g-22----|-----|-44----|--------|
d-22----|-----|-44----|-77-77--|
a-00----|-----|-22----|-55-44--|
E-------|-----|-------|--------|

End
e------||
b------||
g-2----||
d-2----||
a-0----||
E------||

By John Black.
Please rate/comment. It will be appreciated.
            

comments powered by Disqus
↑ Back to top | Blink Tabs for Mutt. Lyrics for acoustic guitar and electric guitar. Tablatures and chords are parodies/interpretations of the original songs. You may use it for private study, scholarship, research or language learning purposes only