» » »

Mothers Day Tabs (ver.2)

Artists:  A B C D E F G H I J K L M N O P Q R S T U V W X Y Z # 

Mothers Day Tabs (ver.2)

Blink
Rating:
0/5 (0 votes)

Hard to play? Try these video lessons and learn fast.
                
I think tab is 182% correct

e----------------------------------------------
B----------------------------------------------
G---------------------------------------------- X4
D-2-2-2-2-2-2-2-2-2-2-2-2-2-2----5-5-5---4--3--
A-2-2-2-2-2-2-2-2-2-2-2-2-2-2----5-5-5---4--3--
E-0-0-0-0-0-0-0-0-0-0-0-0-0-0----3-3-3---2--1--

e-------3--------------------------------------
B----3---------3-------------------------------
G-0--------0-----------------------------------
D----------------------------------------------  Repeat
A----------------------------------------------
E----------------------------------------------
            
Hard to play? Try these video lessons and learn fast. | Correct




comments powered by Disqus
↑ Back to top | Tablatures and chords are parodies/interpretations of the original songs. You may use it for private study, scholarship, research or language learning purposes only