» » »

Blink, Mothers Day Tabs (ver.1)

Artists:  A B C D E F G H I J K L M N O P Q R S T U V W X Y Z # 

Mothers Day Tabs (ver.1)

Blink Tabs
Rating:
0/5 (0 votes)
Mothers Day lessons Tabs too difficult? Try these video lessons and learn fast
                Standard Tuning: EADGBE

Riff A
E---------------------------------------------------------
B---------------------------------------------------------
G---------------------------------------------------------
D-22222-22222-22222-5555-44-33----------------------------
A-22222-22222-22222-5555-44-33----------------------------
E-00000-00000-00000-3333-22-11----------------------------

Riff B
  Em       C        G        D
E---0-0-0----0-0-0----3-3-3----2-2-2----------------------
B---0-0-0----1-1-1----3-3-3----3-3-3----------------------
G---0-0-0--0-0-0-0----0-0-0--2-2-2-2----------------------
D-2-2-2-2--2--------0--------0----------------------------
A-2--------3--------2-------------------------------------
E-0-----------------3-------------------------------------

Riff C(Guitar 2)
E-----3---------------------------------------------------
B---3---3-------------------------------------------------
G-0-------0-----------------------------------------------
D---------------------------------------------------------
A---------------------------------------------------------
E---------------------------------------------------------

Order:
Riff A x 4
Riff B x 4
Riff C x 16 (With Riff B)
Riff A x 2
Riff B x 4 (Drawn out D chord at end)
Riff C x 16
End on Em
            
Submit corrections

comments powered by Disqus
↑ Back to top | Blink Tabs for Mothers Day. Lyrics for acoustic guitar and electric guitar. Tablatures and chords are parodies/interpretations of the original songs. You may use it for private study, scholarship, research or language learning purposes only