» » »

Man Overboard Tabs (ver.1)

Artists:  A B C D E F G H I J K L M N O P Q R S T U V W X Y Z # 

Man Overboard Tabs (ver.1)

Blink
Rating:
0/5 (0 votes)

Hard to play? Try these video lessons and learn fast.
                Palm Mute= ....
Slide Up= /

e|--------------------------------------------------------------------|
b|--------------------------------------------------------------------|
g|--------------------------------------------------------------------| x 2
d|--------------------------------------------------------------------|
a|------5---3---2--------5---3---2--------5---3---2---3---2---3---2---|
e|--3-3---3---3---3--3-3---3---3---3--3-3---3---3---3---3---3---3---3-|

e|----------------------------|
b|----------------------------|
g|--------------5-------------| x 3
d|--5-----7-----5-------------|
a|--5-----7-----3-------------|
3|--3-----5-------------------|

e|----------------------------|
b|----------------------------|
g|--------------5-----7-------| x 1
d|--5-----7-----5-----7-------|
a|--5-----7-----3-----5-------|
e|----------------------------|

e|--------------------------------------------------|
b|--------------------------------------------------|
g|--------------------------------------------------| x 2
d|--------------------------------------------------|
a|----0-2-3-2-0-2-3-2-0----0-2-3-2-0-2-3-2-0--------|
e|--3--------------------0--------------------------|

e|------------------------|
b|------------------------|
g|------------------------| x 4
d|--5-5-------------------|
a|------2/3-5--5-7-5-3----|
e|------------------------|

e|------------------------|
b|------------------------|
g|------------------------|
d|----------------5555----|
a|--55555555-2222-3333----|
e|--33333333-0000---------|
  ........................

e|------------------------|
b|------------------------|
g|-------7777------5555---| x 2
d|--5555-7777-2222-5555---|
a|--5555-5555-2222-3333---|
e|--3333------0000--------|

e|--------------------------------------------------|
b|--------------------------------------------------|
g|--------------------------------------------------| x 2
d|--------------------------------------------------|
a|----0-2-3-2-0-2-3-2-0----0-2-3-2-0-2-3-2-0--------|
e|--3--------------------0--------------------------|

e|------------------------------------------------------------|
b|------------------------------------------------------------|
g|------------------------------------------------------------| x 2
d|------5------5------5------5------5------5------5------5----|
a|--------------------------------------------3-3----3-3------|
e|--3-3----3-3----3-3----3-3----0-0----0-0--------------------|
    ...    ...    ...    ...    ...    ...    ...    ...

e|------------------------|
b|------------------------|
g|-------7777------5555---| x 2
d|--5555-7777-2222-5555---|
a|--5555-5555-2222-3333---|
e|--3333------0000--------|

e|----------------------------|
b|----------------------------|
g|--------------5-------------| x 3
d|--5-----7-----5-------------|
a|--5-----7-----3-------------|
3|--3-----5-------------------|

e|----------------------------|
b|----------------------------|
g|--------------5-----7-------| x 1
d|--5-----7-----5-----7-------|
a|--5-----7-----3-----5-------|
e|----------------------------|

e|--------------------------------------------------|
b|--------------------------------------------------|
g|--------------------------------------------------| x 2
d|--------------------------------------------------|
a|----0-2-3-2-0-2-3-2-0----0-2-3-2-0-2-3-2-0--------|
e|--3--------------------0--------------------------|

e|------------------------|
b|------------------------|
g|------------------------| x 4
d|--5-5-------------------|
a|------2/3-5--5-7-5-3----|
e|------------------------|

e|-----------------------------------------------------------------|
b|-----------------------------------------------------------------|
g|------5------------5----------5------------5---7--7--7--7--------|
d|--5---5------5--7--5------5---5------5--7--5---7--7--7--7--5-----|
a|--5---3------5--7--3------5---3------5--7--3---5--5--5--5--5-----|
e|--3----------3--5---------3----------3--5------------------3-----|

The last part you have to listen hard to know when to play the chords.
            
Hard to play? Try these video lessons and learn fast. | Correct




comments powered by Disqus
↑ Back to top | Tablatures and chords are parodies/interpretations of the original songs. You may use it for private study, scholarship, research or language learning purposes only