>
 >
Im Sorry

Im Sorry Guitar Tabs

Blink - Im Sorry chords, tabs, tablatures, lyrics

Guitar lessons | Add/correct | Request | Top 50 tabs Artists:  A B C D E F G H I J K L M N O P Q R S T U V W X Y Z 0-9

Im Sorry Guitar Tabs – Blink

CD, Sheet music, Poster

Do you like Im Sorry? Share with your friends now
Tabs

E|---------------------------------------------------------------------| 
B|---------------------------------------------------------------------| 
G|----------------------------6----6----------------------------6----6-| 
D|----7-9---7-6---------0----------------7-9--7-6--------0-------------| 
A|-0------0------7-7-7----7--7----0---0-----0----7-7-7-----7--7----0---| 
E|---------------------------------------------------------------------| 

E|---------------------------------------------------------------------| 
B|---------------------------------------------------------------------| 
G|---------------------------------------------------------------------| 
D|-7--77777777777770------------------9--999999999999999---------------| 
A|-5--55555555555550-7777777777777770-7--777777777777777---------------| 
E|-------------------5555555555555550----------------------------------| 

E|---------------------------------------------------------------------| 
B|---------------------------------------------------------------------| 
G|---------------------------------------------------------------------| 
D|-7777777777777777--7-777777777777777-------------------99999999------| 
A|-5555555555555555--5-555555555555555-7777777777777770--77777777------| 
E|-------------------------------------5555555555555550----------------| 

E|---------------------------------------------------------------------| 
B|---------------------------------------------------------------------| 
G|---------------------------------------------------------------------|
D|-9--999999-0-77777777-99999--99--7-----------------------------------| 
A|-7--777777-0-55555555-77777--77--7-----------------------------------| 
E|---------------------------------------------------------------------| 

E|---------------------------------------------------------------------|
B|---------------------------------------------------------------------| 
G|---------------------------------------------------------------------| 
D|---------------------------------------------------------------------|
A|-7---7---7----7----7-----7----7---7----7----7-----7----7-----7---7---| 
E|4-4-4-5-5-5-5---0-4--4-4--5-5--5-5-0-4--4-4---5-5---5-5---0-4--44--5-| 

E|---------------------------------------------------------------------| 
B|------------0-2---------0-2--------0-2-------0-0-------------0-2-0-2-| 
G|-6--8-2---2-----2-2---2-----2-2--2----2-2-2------2-1-2--2-----2-2-2-2| 
D|-7--9---2-----------2-----------2-----------2-------------2-2--------| 
A|-7--9----------------------------------------------------------------| 
E|-5--7----------------------------------------------------------------| 

E|---------------------------------------------------------------------| 
B|-------------0-2-----------0-0---------------------------------------| 
G|--2-2----2-------2-2-2--------2-1------------------------------------| 
D|-------2-----------------2-------------------------------------------| 
A|---------------------------------------------------------------------| 
E|---------------------------------------------------------------------| 

E|--555555555555-------------------777777777777-----------------------| 
B|--555555555555----777777777777---777777777777---777777---999999-----| 
G|--666666666666----777777777777---999999999999---777777---999999-----| 
D|--777777777777----777777777777---777777777777---777777---999999-----| 
A|--777777777777----555555555555---999999999999---555555---777777-----| 
E|--555555555555----777777777777--------------------------------------| 

E|--------------------------------------------------------------------| 
B|--10-10-10-10-10-10-10-10-10-10-10-10---777777----999999------------| 
G|---9--9--9--9--9--9--9--9--9--9--9--9---777777----999999------------| 
D|---7--7--7--7--7--7--7--7--7--7--7--7---777777----999999------------| 
A|---0--0--0--0--0--0--7--7--7--7--7--7---555555----777777------------| 
E|--------------------------------------------------------------------| 

E|-----------------55555555555-------------------------------------5--| 
B|--777777777777---55555555555--9999999999--777777777777--999999---5--| 
G|--777777777777---66666666666--9999999999--777777777777--999999---6--| 
D|--777777777777---77777777777--9999999999--777777777777--999999---7--| 
A|--555555555555---77777777777--7777777777--555555555555--777777---7--| 
E|-----------------55555555555-------------------------------------5--| 

E|--555555--000000---222222-------------------------------------------| 
B|--555555--000000---222222---777777---999999-------------------------| 
G|--666666--111111---222222---777777---999999-------------------------| 
D|--777777--222222---444444---777777---999999-------------------------| 
A|--777777--222222---444444---555555---777777-------------------------| 
E|--555555--000000---222222-------------------------------------------|





Comments


Popular Blink tabs & chords
A Dog Tabs
Aliens Exist 1 Tabs
Carousel 1 Tabs
Dont Leave Me Tabs
Feeling This 1 Tabs
Heres Your Letter 2 Tabs
Obvious 1 Tabs
Obvious 100% Tabs
Reckless Abandon Tabs
Roller Coaster Tabs


Song lyrics



↑ Back to top | Tablatures and chords are parodies/interpretations of the original songs. You may use it for private study, scholarship, research or language learning purposes only
© 2014 AZChords.com Contact us | Privacy policy | DMCA | Add/correct tabs | Request tabs | Top 50 tabs