» » »

Blink, I Miss You Tabs (ver.1)

Artists:  A B C D E F G H I J K L M N O P Q R S T U V W X Y Z # 

I Miss You Tabs (ver.1)

Blink Tabs
Rating:
0/5 (0 votes)
I Miss You lessons Tabs too difficult? Try these video lessons and learn fast
                 

Tuning: Standard
Guitar: Acoustic


Intro:
E|------------------------|
B|------------------------|
G|--4~~4/8~~8-8~~~~~~~~~~~|
D|--x--x-x--x-x-----------|x12
A|--2~~2/6~~6-6~~~~~~~~~~~|
E|-------7~~7-7~~~~~~~~~~~|


Verse:
E|------------------------|
B|------------------------|
G|--4~~4/8~~8-8~~~~~~~~~~~|
D|--x--x-x--x-x-----------|x12
A|--2~~2/6~~6-6~~~~~~~~~~~|
E|-------7~~7-7~~~~~~~~~~~|


Interlude 1:
E|---------------------------------------------------------------------------|
B|-4-4-4444-4-4-4444-4-4-4442-2-2-2222---------------------------------------|
G|-4-4-4444-4-4-4444-4-4-4444-4-4-4444---------------------------------------|
D|-x-x-xxxx-x-x-xxxx-1-1-1114-4-4-4444-6-6-6668-8-8-8888-9-9-9999-9-9-9999---|x2
A|-2-2-2224-4-4-4444-------------------7-7-7777-7-7-7777-7-7-7777-7-7-7777---|
E|-------------------------------------0-0-0000-0-0-0000-0-0-0000-0-0-0000---|


Verse:
E|------------------------|
B|------------------------|
G|--4~~4/8~~8-8~~~~~~~~~~~|
D|--x--x-x--x-x-----------|x16
A|--2~~2/6~~6-6~~~~~~~~~~~|
E|-------7~~7-7~~~~~~~~~~~|


Chorus:
E|---------------------------------------------------------------------------|
B|-4-4-4444-4-4-4444-4-4-4442-2-2-2222---------------------------------------|
G|-4-4-4444-4-4-4444-4-4-4444-4-4-4444---------------------------------------|
D|-x-x-xxxx-x-x-xxxx-1-1-1114-4-4-4444-6-6-6668-8-8-8888-9-9-9999-9-9-9999---|x2
A|-2-2-2224-4-4-4444-------------------7-7-7777-7-7-7777-7-7-7777-7-7-7777---|
E|-------------------------------------0-0-0000-0-0-0000-0-0-0000-0-0-0000---|

Interlude 2:
E|------------------------|
B|------------------------|
G|--4~~4/8~~8-8~~~~~~~~~~~|
D|--x--x-x--x-x-----------|x8
A|--2~~2/6~~6-6~~~~~~~~~~~|
E|-------7~~7-7~~~~~~~~~~~|


Ending:
E|---------------------------------------------------------------------------|
B|-4-4-4444-4-4-4444-4-4-4442-2-2-2222---------------------------------------|
G|-4-4-4444-4-4-4444-4-4-4444-4-4-4444---------------------------------------|
D|-x-x-xxxx-x-x-xxxx-1-1-1114-4-4-4444-6-6-6668-8-8-8888-9-9-9999-9-9-9999---|x8
A|-2-2-2224-4-4-4444-------------------7-7-7777-7-7-7777-7-7-7777-7-7-7777---|
E|-------------------------------------0-0-0000-0-0-0000-0-0-0000-0-0-0000---|
            

comments powered by Disqus
↑ Back to top | Blink Tabs for I Miss You. Lyrics for acoustic guitar and electric guitar. Tablatures and chords are parodies/interpretations of the original songs. You may use it for private study, scholarship, research or language learning purposes only