» » »

Blink, Going Away To College Tabs (ver.1)

Artists:  A B C D E F G H I J K L M N O P Q R S T U V W X Y Z # 

Going Away To College Tabs (ver.1)

Blink Tabs
 Rating:
4/5 (4 votes)
Going Away To College lessons Tabs too difficult? Try these video lessons and learn fast
1
                *Intro: Clear, Rest of Song: Distortion*

Intro (4x)                          Last Time End On:
-------------------                     ----- 
44444444-22222222--                     --2--
44444444-44444444--                     --4--
-------------------                     -----
-------------------                     -----
-------------------                     -----

Pre-Verse (2x)                                             End On:
---------------------------------------------------         -----
---------------------------------------------------         -----
----------8-----------8-----------8----------------         -----
----9-----------9-----------9-----------11-----11--         --9--
------------------------7-7---7-7---9-9----9-9-----         --9--
7-7---7-7---7-7---7-7------------------------------         --7--

Verse (2x) (Wait a little before coming in)
------------------------
------------------------
------9999-11-11-11-11--
9-999-9999-9--9--9--9---
9-999-7777-9--9--9--9---
7-777-------------------

Chorus (4x)                                     Last Time End On:
-------------------------------------               -----
-------------------------------------               -----
88888888-99999999-44444444-----------               -----
88888888-99999999-44444444-44444444--               --4--
66666666-77777777-22222222-44444444--               --4--
---------------------------22222222--               --2--

Riff (2x)
-------------------------------------------------
-------------------------------------------------
----8-----8-----8-----8-----8-----8-----9-----8--
-------------------------------------------------
------------------------7-7---7-7---9-9---7-7----
7-7---7-7---7-7---7-7----------------------------

Song Order:
Intro
Pre-Verse
Verse
Pre-Verse
Verse
Chorus
Pre-Verse
Riff
Verse
Chorus
Intro
Chorus
            
Submit corrections

comments powered by Disqus
↑ Back to top | Blink Tabs for Going Away To College. Lyrics for acoustic guitar and electric guitar. 1 Tablatures and chords are parodies/interpretations of the original songs. You may use it for private study, scholarship, research or language learning purposes only