» » »

Blink, Going Away To College Tabs (ver.2)

Artists:  A B C D E F G H I J K L M N O P Q R S T U V W X Y Z # 

Going Away To College Tabs (ver.2)

Blink Tabs
 Rating:
4/5 (4 votes)
Going Away To College lessons Tabs too difficult? Try these video lessons and learn fast
                
Capo II fret



Intro
e----------------|----------------|-00-000-0-0-000-/1\-00-000-0-0-000-|
b----------------|----------------|-22-222-0-0-000-\s/-22-222-0-0-000-|
g-66-666-4-4-444-|-66-666-4-4-444-|-22-222-2-2-222-/t\-22-222-2-2-222-|
d-77-777-7-7-777-|-77-777-7-7-777-|-00-000-0-0-000-\e/-00-000-0-0-000-|
a-00-000-0-0-000-|-00-000-0-0-000-|----------------/n\----------------|
E----------------|----------------|----------------\d/----------------|

/2\-00-000-0-||
\n/-22-222-0-||
/d\-22-222-2-||
\e/-00-000-0-||
/n\----------||
\d/----------||

Break
e---------------|--------------|--------------|--------------||
b---------------|--------------|--------------|--------------||
g-------------6-|------------6-|------------6-|--------------||
d------7--------|-----7--------|-----7--------|-----9------9-|| X2
a--0-0----0-0---|-0-0----0-0---|-5-5----5-5---|-7-7----7-7---||
E---------------|--------------|--------------|--------------||

Verse
e------|----|----|----|
b------|----|----|----|
g-2~---|----|----|----|
d-2~---|----|----|----|
a-0~---|----|----|----|
E------|----|----|----|

e-----------|-----------||
b-----------|-----------||
g-2-2-2-222-|-7777-9999-||
d-2-2-2-222-|-7777-9999-|| X2
a-0-0-0-000-|-5555-7777-||
E-----------|-----------||

Break
e---------------|--------------|--------------|--------------||
b---------------|--------------|--------------|--------------||
g-------------6-|------------6-|------------6-|--------------||
d------7--------|-----7--------|-----7--------|-----9------9-|| X2
a--0-0----0-0---|-0-0----0-0---|-5-5----5-5---|-7-7----7-7---||
E---------------|--------------|--------------|--------------||


Verse
Verse
e------|----|----|----|
b------|----|----|----|
g-2~---|----|----|----|
d-2~---|----|----|----|
a-0~---|----|----|----|
E------|----|----|----|

e-----------|-----------||
b-----------|-----------||
g-2-2-2-222-|-7777-9999-||
d-2-2-2-222-|-7777-9999-|| X2
a-0-0-0-000-|-5555-7777-||
E-----------|-----------||

Chorus X4
e-----------|-----------|-----------|-----------|/4\-------||
b-----------|-----------|-----------|-----------|\t/-------||
g-6-6666666-|-7-7777777-|-2-2222222-|-----------|/h\-------||
d-x-xxxxxxx-|-x-xxxxxxx-|-2-2222222-|-2-2222222-|\e/-2~----||
a-4-4444444-|-5-5555555-|-0-0000000-|-2-2222222-|/n\-2~----||
E-----------|-----------|-----------|-0-0000000-|\d/-0~----||

Break
e---------------|--------------|--------------|--------------||
b---------------|--------------|--------------|--------------||
g-------------6-|------------6-|------------6-|--------------||
d------7--------|-----7--------|-----7--------|-----9------9-|| X2
a--0-0----0-0---|-0-0----0-0---|-5-5----5-5---|-7-7----7-7---||
E---------------|--------------|--------------|--------------||

Verse
e-----------|-----------|-----------|------------|
b-----------|-----------|-----------|------------|
g----6----6-|----6----6-|----6----6-|----7-------|
d-----------|-----------|-----------|----------7-| X2
a-00---00---|-00---00---|-55----55--|-77----77---|
E-----------|-----------|-----------|------------|
Pm..   ..     ..   ..     ..    ..    ..    ..

e-----------|-----------||
b-----------|-----------||
g-2-2-2-222-|-7777-9999-||
d-2-2-2-222-|-7777-9999-|| X2
a-0-0-0-000-|-5555-7777-||
E-----------|-----------||

Chorus X4
e-----------|-----------|-----------|-----------|/4\-------||
b-----------|-----------|-----------|-----------|\t/-------||
g-6-6666666-|-7-7777777-|-2-2222222-|-----------|/h\-------||
d-x-xxxxxxx-|-x-xxxxxxx-|-2-2222222-|-2-2222222-|\e/-2~----||
a-4-4444444-|-5-5555555-|-0-0000000-|-2-2222222-|/n\-2~----||
E-----------|-----------|-----------|-0-0000000-|\d/-0~----||


Intro
e----------------|----------------|-00-000-0-0-000-|-00-000-0-0-000-||
b----------------|----------------|-22-222-0-0-000-|-22-222-0-0-000-||
g-66-666-4-4-444-|-66-666-4-4-444-|-22-222-2-2-222-|-22-222-2-2-222-||
d-77-777-7-7-777-|-77-777-7-7-777-|-00-000-0-0-000-|-00-000-0-0-000-|| X2
a-00-000-0-0-000-|-00-000-0-0-000-|----------------|----------------||
E----------------|----------------|----------------|----------------||

Chorus X4
e-----------|-----------|-----------|-----------|/4\-------||
b-----------|-----------|-----------|-----------|\t/-------||
g-6-6666666-|-7-7777777-|-2-2222222-|-----------|/h\-------||
d-x-xxxxxxx-|-x-xxxxxxx-|-2-2222222-|-2-2222222-|\e/-2~----||
a-4-4444444-|-5-5555555-|-0-0000000-|-2-2222222-|/n\-2~----||
E-----------|-----------|-----------|-0-0000000-|\d/-0~----||

By John Black
Please Rate/Comment Thank YOU!
            
Submit corrections

comments powered by Disqus
↑ Back to top | Blink Tabs for Going Away To College. Lyrics for acoustic guitar and electric guitar. Tablatures and chords are parodies/interpretations of the original songs. You may use it for private study, scholarship, research or language learning purposes only