>
 >
Give Me One Good Reason

Give Me One Good Reason Guitar Tabs

Blink - Give Me One Good Reason chords, tabs, tablatures, lyrics

Guitar lessons | Add/correct | Request | Top 50 tabs Artists:  A B C D E F G H I J K L M N O P Q R S T U V W X Y Z 0-9

Give Me One Good Reason Guitar Tabs – Blink

CD, Sheet music, Poster

Do you like Give Me One Good Reason? Share with your friends now
Tabs

Guitar 1: Capo II
Guitar 2: Drop D tuning, Capo II
Guitar 4: Standard tuning


Intro

Guitar 1
e-----------------|-----------------|-----------------|
b-----------------|-----------------|-----------------|
g-----------------|-----------------|-----------------|
d-----4-----4-0---|-----0-----0-----|-----4-----4-0---|
a---5-----5-------|---7-----7-----7-|---5-----5-------|
E-5-----5---------|-5-----5-----5---|-5-----5---------|

e-----------------|-----------------|-----------------|----------------|
b-----------------|-----------------|-----------------|----------------|
g-----------------|-----------------|-----------------|----------------|
d-----0-----0-----|-----0-----0-----|-----0-----0-----|-----0-----0----|
a---7-----7-----7-|---9-----9-----9-|---5-----5-----5-|---9-----9----9-|
E-5-----5-----5---|-7-----7-----7---|-3-----3-----3---|-7-----7----7---|

Guitar 1
e-----------------||
b-----------------||
g-----------------||
d-----0-----0---0-||
a---7-----7-------||
E-5-----5-----5---||
Guitar 2	  ||
e-----------------||
b-----------------||
g-----------------||
d-----------------||
a---------7*7*7*7*||
E---------x-x-x-x-||

Verse
Guitar 2
e-----------------|-----------------|-----------------|-----------------|
b-----------------|-----------------|-----------------|-----------------|
g-----------------|-----------------|-----------------|-----------------|
d-----------------|-----------------|-----------------|-----------------|
a-0-0-0-0-0-------|-7-7-7-7-7-------|-0-0-0-0-0-------|-7-7-7-7-7-------|
E-0-0-0-0-0-------|-7-7-7-7-7-------|-0-0-0-0-0-------|-7-7-7-7-7-------|
PM. . . . .         . . . . .         . . . . .         . . . . .
e-----------------|-----------------|-----------------|-----------------||
b-----------------|-----------------|-----------------|-----------------||
g-----------------|-----------------|-----------------|-----------------||
d-----------------|-----------------|-----------------|-----------------||
a-9-9-9-9-9-------|-5-5-5-5-5-------|-9-9-9-9-9-------|-7-7-7-7-7-------||
E-9-9-9-9-9-------|-5-5-5-5-5-------|-9-9-9-9-9-------|-7-7-7-7-7-------||
PM. . . . .         . . . . .         . . . . .         . . . . .

Interlude
Guitar 2
e-----------------|-----------------|-----------------|-----------------||
b-3-3-3-3-3-------|-----------------|---3-3-3-3-------|-----------------||
g-2-2-2-2-2-------|-----------------|---2-2-2-2-------|-----------------||
d-0-0-0-0-0----4--|-----------------|---0-0-0-0----4--|-----------------||
a-0-0-0-0-0-------|---0-0-0-4h5-5---|---0-0-0-0-------|---0-0-0-4h5-5---||
E-0-0-0-0-0-------|-----------------|---0-0-0-0-------|-----------------||

*Repeat Verse*

*Repeat Interlude*

Chorus
Guitar 2
e-----------------|-----------------|-----------------|-----------------|
b-----------------|-----------------|-----------------|-----------------|
g-7-7-7-7-7-7-7-7-|-----------------|-----------------|-----------------|
d-7-7-7-7-7-7-7-7-|-----------------|-7-7-7-7-7-7-7-7-|-7-7-7-7-7-7-7---|
a-5-5-5-5-5-5-5-5-|-5-5-5-5-5-5-5---|-7-7-7-7-7-7-7-7-|-7-7-7-7-7-7-7---|
E-0-0-0-0-0-0-0-0-|-4-4-4-4-4-4-4/7-|-7-7-7-7-7-7-7-7-|-7-7-7-7-7-7-7---|

e-----------------|-----------------|-----------------|-----------------||
b-----------------|-----------------|-----------------|-----------------||
g-7-7-7-7-7-7-7-7-|-----------------|-----------------|-----------------||
d-7-7-7-7-7-7-7-7-|-----------------|-7-7-7-7-7-7-7---|-5-5-5-5-5-5-5---|| X2
a-5-5-5-5-5-5-5-5-|-5-5-5-5-5-5-5---|-7-7-7-7-7-7-7---|-5-5-5-5-5-5-5---||
E-0-0-0-0-0-0-0-0-|-4-4-4-4-4-4-4/7-|-7-7-7-7-7-7-7-0-|-5-5-5-5-5-5-5-0-||

*Repeat intro*

*Repeat Verse*

*Repeat Interlude X2*

*Repeat Chorus*


Guitar Solo

Guitar 4
e-----------------|-----------------|-----------------|
b-----------------|-----------------|-----------------|
g-9-9-9-1111111313|-1314141413--9-9-|-9-9---4-4-4-4-4-|
d-x-x-x-x-x-x-x-x-|-x-x-x-x-x---x-x-|-x-x---x-x-x-x-x-|
a-7-7-7-9-9-9-1111|-1112121211--7-7-|-7-7---2-2-2-2-2-|
E-----------------|-----------------|-----0-----------|
Guitar 2			                |
e-----------------|-----------------|-----------------|
b-----------------|-----------------|-----------------|
g-----------------|-----------------|-----------------|
d-9-9-9-9-9-9-9-9-|-9-9-9-9-9-9-9-9-|-5-5-5-5-5-5-5-5-|
a-9-9-9-9-9-9-9-9-|-9-9-9-9-9-9-9-9-|-5-5-5-5-5-5-5-5-|
E-9-9-9-9-9-9-9-9-|-9-9-9-9-9-9-9-9-|-5-5-5-5-5-5-5-5-|


e-----------------|-----------------|-----------------||
b-----------------|-----------------|-----------------||
g-9-9-9-4-4-4-4-4-|-9-9-9-1111111313|-1314141413--9---||
d-x-x-x-x-x-x-x-x-|-x-x-x-x-x-x-x-x-|-x-x-x-x-x---x---||
a-7-7-7-2-2-2-2-2-|-7-7-7-9-9-9-1111|-1112121211--7---||
E-----------------|-----------------|-----------------||
				   ||
e-----------------|-----------------|-----------------||
b-----------------|-----------------|-----------------||
g-----------------|-----------------|-----------------||
d-5-5-5-5-5-5-5-5-|-9-9-9-9-9-9-9-9-|-9-9-9-9-9-9-9-9-||
a-5-5-5-5-5-5-5-5-|-9-9-9-9-9-9-9-9-|-9-9-9-9-9-9-9-9-||
E-5-5-5-5-5-5-5-5-|-9-9-9-9-9-9-9-9-|-9-9-9-9-9-9-9-9-||

                     First ending (Repeat)  Second Ending
e-------------------|--------------------||-----------------|---||
b-------------------|--------------------||-----------------|---||
g-111111111113\119-9|-9-1111111113\119---||-9/11111111139\8/|-9~||
d-x-x-x-x-x-x----x-x|-x-x-x-x-x-x----x---||-x---x-x-x-x-x---|---||
a-9-9-9-9-9-11\9-7-7|-7-9-9-9-9-11\9-7---||-7/9-9-9-9-117\6/|-7~||
E-------------------|--------------------||-----------------|---||
	               	                          ||
e-------------------|--------------------||-----------------|---||
b-------------------|--------------------||-----------------|---||
g-------------------|--------------------||-----------------|---||
d-7-7-7-7-7-7----7-7|--------------------||-5-5-5-5-5-5-5-5-|-0~||
a-7-7-7-7-7-7----7-7|--------------------||-5-5-5-5-5-5-5-5-|-0~||
E-7-7-7-7-7-7----7-7|-7-7-7-7-7-7----7-7-||-5-5-5-5-5-5-5-5-|-0~||

*Repeat Chorus*

End

Guitar 2
e---------||
b---------||
g---------||
d-0~------||
a-0~------||
E-0~------||

By John Black

Plese rate/comment It is nice to do





Comments


Popular Blink tabs & chords
All The Small Things Tabs
All The Small Things 1 Tabs
Fk The Dog Tabs
Im Sorry Tabs
Sometimes Tabs
Stay Together For The Kids 1 Tabs
Story Of A Lonely Guy 1 Tabs
The Rock Show 1 Tabs
What Went Wrong Tabs
When You Ed Grampa Tabs


Song lyrics



↑ Back to top | Tablatures and chords are parodies/interpretations of the original songs. You may use it for private study, scholarship, research or language learning purposes only
© 2014 AZChords.com Contact us | Privacy policy | DMCA | Add/correct tabs | Request tabs | Top 50 tabs