» » »

Blink, Fk The Dog Tabs (ver.1)

Artists:  A B C D E F G H I J K L M N O P Q R S T U V W X Y Z # 

Fk The Dog Tabs (ver.1)

Blink Tabs
Rating:
0/5 (0 votes)
Fk The Dog lessons Tabs too difficult? Try these video lessons and learn fast
                Intro :

E|----------------------|
B|--0-------------------|
G|----0--0--------------|  
D|-0----0-----5-------7-|
A|----------3---3-3/5---|
E|----------------------|



E|----------------------|
B|--0-------------------|
G|----0--0--------------|  x9
D|-0----0-----5-------7-|
A|----------3---3-3/5---|
E|----------------------|


E|---|
B|---|
G|-4-|
D|-5-|
A|-5-|
E|-3-|

E|---------------------|
B|--0------------------|
G|----0---0------------|
D|-0----0-----5--------|
A|----------3----3-3/5-|
E|---------------------|
            
Submit corrections

comments powered by Disqus
↑ Back to top | Blink Tabs for Fk The Dog. Lyrics for acoustic guitar and electric guitar. Tablatures and chords are parodies/interpretations of the original songs. You may use it for private study, scholarship, research or language learning purposes only