» » »

Feeling This Tabs (ver.4)

Artists:  A B C D E F G H I J K L M N O P Q R S T U V W X Y Z # 

Feeling This Tabs (ver.4)

Blink
Rating:
0/5 (0 votes)

Hard to play? Try these video lessons and learn fast.
                Blink 182
Feeling This
Self Titled
Standard Tuning

It's odd no one had tabbed this out yet.  I haven't even downloaded the song or bought
the cd.  I've seen the video twice so I doubt all the strumming is correct, but it's close.

Intro/Verse
-----------------------------------------
-----------------------------------------
--11-/9999x9--13--9----------------------
---x-/xxxxxx---x--x----------------------
---9-/777777--11--7----------------------
----------0------------------------------x10

Chorus (Mostly bass, one guitar strum is made where you see it.)
-----------------------------------------
-----------------------------------------
--9--------------------------------------
--9--------------------------------------
--7--------------------------------------
-----------------------------------------
  Faith fell short this time, smile fades in the summer

-----------------------------------------
-----------------------------------------
--9--------------------------------------
--9--------------------------------------
--7--------------------------------------
-----------------------------------------
  Place your hand in mine, I'll leave when I wanna


Post Chorus (Listen to song for strumming)
-------------------------------------------------------
-------------------------------------------------------
--999999-9-/1111111111-11-/1313131313-13-/141414141414-
--xxxxxx-x-/-x-x-x-x-x--x-/-x-x-x-x-x--x-/-x-x-x-x-x-x-
--777777-7-/-9-9-9-9-9--9-/1111111111-11-/121212121212-
-------------------------------------------------------

Verse
-----------------------------------------
-----------------------------------------
--11-/9999x9--13--9----------------------
---x-/xxxxxx---x--x----------------------
---9-/777777--11--7----------------------
----------0------------------------------x8

Chorus (Mostly bass, one guitar strum is made where you see it.)
-----------------------------------------
-----------------------------------------
-----------------------------------------
-----------------------------------------
-----------------------------------------
-----------------------------------------
  Faith fell short this time, smile fades in the summer

-----------------------------------------
-----------------------------------------
--9--------------------------------------
--9--------------------------------------
--7--------------------------------------
-----------------------------------------
  Place your hand in mine, I'll leave when I wanna


Bridge

Fist part is mostly drums with a little bass. (No guitar)

Lyrics: "This place was never the same again after you came and went
How can you say you meant anything different to anyone
Standing alone on the street with a cigarette 
On the first night we met."

Then

------------------------------------------
------------------------------------------
----9-------------------------------------
----9[x8]----9--------11--------7---------
----7--------9[x7]----11[x8]----7[x8]-----
-------------7---------9--------5---------
[pm....................................pm]

------------------------------------------
------------------------------------------
----9-------------------------------------
----9[x8]----9--------11--------7---------
----7--------9[x7]----11[x8]----7---------
-------------7---------9--------5---------
[pm......................pm]

Lyrics: "Look to the past and remember her smile
And maybe tonight I can breathe for awhile
I'm not in the scene, I think I'm fallin' asleep 
But then all that it means is I'll always be dreamin' of you"


Last Chorus (Classic T pattern) - Play through 4 times (4th time, the guitar starts to fade.)
-----------------------------------------
-----------------------------------------
--9--------------------------------------
--9[x8]------9----------11----------7----
--7----------9[x8]------11[x8]------7[x8]
-------------7-----------9----------5----
  Faith fell short this time, smile fades in the summer

-----------------------------------------
-----------------------------------------
--9--------------------------------------
--9[x8]------9-------11---------7--------
--7----------9[x8]---11[x8]-----7[x8]----
-------------7--------9---------5--------
  Place your hand in mine, I'll leave when I wanna


Pretty sure that's it.  Feel free to correct me where I'm wrong.  I'm sure it's not 100%.
If it is, it's lucky.  In any event, enjoy and good luck.
            
Hard to play? Try these video lessons and learn fast. | Correct




comments powered by Disqus
↑ Back to top | Tablatures and chords are parodies/interpretations of the original songs. You may use it for private study, scholarship, research or language learning purposes only