>
 >
Feeing This

Feeing This Guitar Tabs

Blink - Feeing This chords, tabs, tablatures, lyrics

Guitar lessons | Add/correct | Request | Top 50 tabs Artists:  A B C D E F G H I J K L M N O P Q R S T U V W X Y Z 0-9

Feeing This Guitar Tabs – Blink

CD, Sheet music, Poster

Do you like Feeing This? Share with your friends now
Tabs
Band-Blink182
Album-Untitled
Song-Feeling This  
I am sure that this is 100% right

.palm mute

Intro
e]-------------------------------------------------------|
B]-------------------------------------------------------|
G]-------------------------------------------------------|
D]-------------------------------------------------------|
A]------9/777-7/11/7-------------------------------------|
E]-----------0-------------------------------------------|

Verse
e]-------------------------------------------------------|
B]-------------------------------------------------------|
G]-11/999-11/13/11---------------------------------------|
D]-x-/xxx-x-/x-/x----------------------------------------|
A]-9-/77709-/11/9----------------------------------------|
E]-------0-----------------------------------------------|

Chorus
e]-------------------------------------------------------|
B]-------------------------------------------------------|
G]-------------------------------------------------------|
D]2----------------------2-------------------------------|
A]2----------------------2-------------------------------|
E]0----------------------0-------------------------------|

Bass Chorus
G]-------------------------------------------------------|
D]-------------------------------------------------------|
A]--------2222222244444444-------------------------------|
E]00000000----------------55555555-----------------------|

Break
e]----------------------------------------------------------|
B]----------------------------------------------------------|
G]99999999/111111111111111/1313131313131313/1414141414141414|
D]xxxxxxxx/x-x-x-x-x-x-x-x/x-x-x-x-x-x-x-x-/x-x-x-x-x-x-x-x-|
A]77777777/9-9-9-9-9-9-9-9/1111111111111111/1212121212121212|
E]----------------------------------------------------------|

Interlude (1 guitar only)
e]------------------------------------------------------|
B]------------------------------------------------------|
G]------------------------------------------------------|
D]99999999----------------------------------------------|
A]77777777-99999999-1111111111111111-77777777-----------|
E]---------77777777-9-9-9-9-9-9-9-9--55555555-----------|
  ........ ........ . . . . . . . .  ........

Last Chorus
e]------------------------------------------------------|
B]------------------------------------------------------|
G]------------------------------------------------------|
D]99999999----------------------------------------------|
A]77777777-99999999-1111111111111111-77777777-----------|
E]---------77777777-9-9-9-9-9-9-9-9--55555555-----------|





Comments


Popular Blink tabs & chords
Boring Tabs
Easy Target 2 Tabs
Feeling This 100% Tabs
Feeling This 2 Tabs
Not Now 1 Tabs
Obvious 2 Tabs
Story Of A Lonely Guy 1 Tabs
Violence Tabs
Whats May Age Agin Tabs
You Fuked Up My Life Tabs


Song lyrics



↑ Back to top | Tablatures and chords are parodies/interpretations of the original songs. You may use it for private study, scholarship, research or language learning purposes only
© 2014 AZChords.com Contact us | Privacy policy | DMCA | Add/correct tabs | Request tabs | Top 50 tabs