» » »

Blink, Dysentery Gary Tabs (ver.1)

Artists:  A B C D E F G H I J K L M N O P Q R S T U V W X Y Z # 

Dysentery Gary Tabs (ver.1)

Blink Tabs
 Rating:
4/5 (4 votes)
Dysentery Gary lessons Tabs too difficult? Try these video lessons and learn fast
                dysentery gary

Intro
Guitar One
e-----------------|-----------------|-----------------|-----------------|
b-----------------|-----------------|-----------------|-----------------|
g-----------------|-----------------|-----------------|-----------------|
d-----------------|-----------------|-------4-4-4-----|-----------------|
a-4-4-4-0-0-0-5-5-|-5-4-4-4-0-0-0-0-|-------------0-0-|-0-4-4-4-4-4-4-0-|
E-----------------|-----------------|-3-3-3-----------|-----------------|

With Intro
e-----|-----|-----|-----|
b-----|-----|-7---|-----|
g-7---|-(7)-|-7---|-----|
d-7---|-(7)-|-7---|-----|
a-5---|-(5)-|-5---|-----|
E-----|-----|-----|-----|
Guitar Two

With Intro
e-----------------|-----------------|-----------------|-----------------|
b-----------------|-----------------|-----------------|-----------------|
g-7---7-7-7-7-7---|-7-7-7-7-7-7-7---|-----------------|-----------------|
d-7---7-7-7-7-7---|-7-7-7-7-7-7-7---|-5---5-5-5-5-7---|-7-7-7-7-7-7-7---|
a-5---5-5-5-5-5---|-5-5-5-5-5-5-5---|-5---5-5-5-5-7---|-7-7-7-7-7-7-7---|
E-----------------|-----------------|-3---3-3-3-3-5---|-5-5-5-5-5-5-5---|
Guitar Two


Verse
e-----------------|-----------------|-----------------|-----------------|
b-----------------|-----------------|-----------------|-----------------|
g-7---------------|-----------------|-7---------------|-----------------|
d-x-----------4---|-----------------|-x-----------4---|-----------------|
a-5---0-0-0-0-5---|-----------------|-5---0-0-0-0-5---|-----------------|
E-----------------|-----------------|-----------------|-----------------|
PM    . . . .                             . . . .

e-----------------|-----------------|-----------------|-----------------|
b-----------------|-----------------|-----------------|-----------------|
g-----------------|-----------------|-2-----------2---|---------2-------|
d-5-----------5---|-----------------|-2-----------2---|---------2-------|
a-5---0-0-0-0-5---|-----------------|-0-----------0---|---------0-------|
E-3-----------3---|-----------------|-----3-3-3-3-----|-3-3-3-3-----3---|
PM    . . . .                             . . . .       . . . .

Interlude
e----------|---------|---------|---------|---------|---------|---------|---------|
b-3----3---|-3---3---|-3---3---|-3---3---|-3---3---|-3---3---|-2---2---|-2---2---|
g-2----2---|-2---2---|-2---2---|-2---2---|-2---2---|-2---2---|-2---2---|-2---2---|
d-0----0---|-0---0---|-0---0---|-0---0---|-0---0---|-0---0---|-2---2---|-2---2---|
a----------|---------|---------|---------|---------|---------|-0---0---|-0---0---|
E----------|---------|---------|---------|---------|---------|---------|---------|

Pre-Chorus
e----------|----------|----------|----------|
b----------|----------|----------|----------|
g-7-777-7--|-77-7-7-7-|-7-77-7-7-|-77-7-7-7-|
d-7-777-7--|-77-7-7-7-|-7-77-7-7-|-77-7-7-7-|
a-5-555-5--|-55-5-5-5-|-5-55-5-5-|-55-5-5-5-|
E----------|----------|----------|----------|

e----------|----------|----------|----------|
b----------|----------|----------|----------|
g----------|----------|----------|----------|
d-5-5--5-5-|-5-55555--|-7--777-7-|-77777-7--|
a-5-5--5-5-|-5-55555--|-7--777-7-|-77777-7--|
E-3-3--3-3-|-3-33333--|-5--555-5-|-55555-5--|


Chorus
Guitar One
e-15--14------|-------------|-15--14-----|-------------|
b---------15--|-------------|---------15-|-------------|
g-------------|---12-12-12--|------------|---12-12-12--|
d-------------|-------------|------------|-------------|
a-------------|-------------|------------|-------------|
E-------------|-------------|------------|-------------|

Guitar Two
e-------------|-------------|------------|-------------|
b-------------|-------------|------------|-------------|
g-------------|-------------|------------|-------------|
d-5---5--5-5--|-5-5-5--5--5-|-7---7--7-7-|-7-7-7--7--7-|
a-5---5--5-5--|-5-5-5--5--5-|-7---7--7-7-|-7-7-7--7--7-|
E-3---3--3-3--|-3-3-3--3--3-|-5---5--5-5-|-5-5-5--5--5-|

With chorus guitar one
e-------------|-------------|------------|-------------|
b-------------|-------------|------------|-------------|
g-7---7--7-7--|-7-7-7--7--7-|-4---4--4-4-|-4-4-4--4--4-|
d-7---7--7-7--|-7-7-7--7--7-|-4---4--4-4-|-4-4-4--4--4-|
a-5---5--5-5--|-5-5-5--5--5-|-2---2--2-2-|-2-2-2--2--2-|
E-------------|-------------|------------|-------------|



Repeat Intro
(A bit different for second guitar)

Repeat Verse

Repeat Interlude X2

Repeat Pre-chorus/Chorus

Solo                                           First End______..Second End.
e-------------|---|-----------|---|------------|----------|---||-----|---||
b-------------|---|-----------|---|------------|----------|---||-----|---||
g-------------|---|-----------|---|------------|----------|---||-----|---||
d-4--(4)/5-4--|---|-2---------|---|-4-(4)/5-4--|-2-----0--|---||-5---|---||
a-5-----------|---|--------0--|---|-5----------|----0-----|---||-5---|---||
E-------------|---|----3------|---|------------|----------|---||-3---|---||

Chorus
Guitar One
e-15--14------|-------------|-15--14-----|-------------|
b---------15--|-------------|---------15-|-------------|
g-------------|---12-12-12--|------------|---12-12-12--|
d-------------|-------------|------------|-------------|
a-------------|-------------|------------|-------------|
E-------------|-------------|------------|-------------|

Guitar Two
e-------------|-------------|------------|-------------|
b-------------|-------------|------------|-------------|
g-------------|-------------|------------|-------------|
d-5---5--5-5--|-5-5-5--5--5-|-7---7--7-7-|-7-7-7--7--7-|
a-5---5--5-5--|-5-5-5--5--5-|-7---7--7-7-|-7-7-7--7--7-|
E-3---3--3-3--|-3-3-3--3--3-|-5---5--5-5-|-5-5-5--5--5-|

With chorus guitar one
e-------------|-------------|------------|-------------|
b-------------|-------------|------------|-------------|
g-7---7--7-7--|-7-7-7--7--7-|-4---4--4-4-|-4-4-4--4--4-|
d-7---7--7-7--|-7-7-7--7--7-|-4---4--4-4-|-4-4-4--4--4-|
a-5---5--5-5--|-5-5-5--5--5-|-2---2--2-2-|-2-2-2--2--2-|
E-------------|-------------|------------|-------------|

Outro
e-----------------|-----------------|-----------|
b-----------------|-----------------|-7---------|
g-----------------|-----------------|-7---------|
d-4-4-4-0-0-0-5-5-|-5-4-4-4---------|-7---------|
a-----------------|-----------------|-5---------|
E-----------------|---------3/5-5-5-|-----------|

By John Black
            
Submit corrections

comments powered by Disqus
↑ Back to top | Blink Tabs for Dysentery Gary. Lyrics for acoustic guitar and electric guitar. Tablatures and chords are parodies/interpretations of the original songs. You may use it for private study, scholarship, research or language learning purposes only