» » »

Blink, Dysentary Gary Tabs (ver.1)

Artists:  A B C D E F G H I J K L M N O P Q R S T U V W X Y Z # 

Dysentary Gary Tabs (ver.1)

Blink Tabs
Rating:
0/5 (0 votes)
Dysentary Gary lessons Tabs too difficult? Try these video lessons and learn fast
                Intro:
e|------------------------------------------------------------------|
B|------------------------------------------------------------------|
G|------------------------------------------------------------------|
D|-4-4-4-------5-5-5-4-4-4-------------4-4-4------------------------|
A|-------5-5-5-------------4-4-4-------------------4-4-4-4-4-4------|
E|-------------------------------3-3-3-------5-5-5------------------|

E|----------------------------------------------------|
B|----------------------------------------------------|
G|---7-7-7-7-7-7-7-7----------------------------------|
D|---7-7-7-7-7-7-7-7---5-5-5-5-5-5-5-5---7-7-7-7-7-7--|
A|---5-5-5-5-5-5-5-5---5-5-5-5-5-5-5-5---7-7-7-7-7-7--|
E|---------------------3-3-3-3-3-3-3-3---5-5-5-5-5-5--|

Verse:
e|--------------------------------------------------------------------------|
B|--------------------------------------------------------------------------|
G|--7-x-x-x-x-x-x-7--7-x-x-x-x-x-x-7----------------------------------------|
D|--7-x-x-x-x-x-x-7--7-x-x-x-x-x-x-7--5-x-x-x-x-x-x-5--7-x-x-7-x-x-x-7-x-7--|
A|--5-x-x-x-x-x-x-5--5-x-x-x-x-x-x-5--5-x-x-x-x-x-x-5--7-x-x-7-x-x-x-7-x-7--|
E|------------------------------------3-x-x-x-x-x-x-3--5-x-x-5-x-x-x-5-x-5--|

Pre-Chorus
e|---------------------------------------------------------|
B|---------------------------------------------------------|
G|-----7---------------------------------7-7-7-------------|
D|-----7--(strumed for a while)----------5-5-5-------------|
A|-----5---------------------------------5-5-5-------------|
E|---------------------------------------------------------|

Chorus:
e|--------------------------------------------------------------------------|
B|--------------------------------------------------------------------------|
G|--7-7-7-7-7-7-7-7-7-7-7-7-------------------------------------------------|
D|--7-7-7-7-7-7-7-7-7-7-7-7--5-5-5-5-5-5-5-5-5-5-5--7-7-7-7-7-7-7-7-7-7-7---|
A|--5-5-5-5-5-5-5-5-5-5-5-5--5-5-5-5-5-5-5-5-5-5-5--7-7-7-7-7-7-7-7-7-7-7---|
E|---------------------------3-3-3-3-3-3-3-3-3-3-3--5-5-5-5-5-5-5-5-5-5-5---|

E|---15-14-------------------|
B|----------15---------------|
G|---------------12-12-12----|
D|---------------------------|
A|---------------------------|
E|---------------------------|

Solo:
e|----------------------------------------------------------------------|
B|----------------------------------------------------------------------|
G|----------------------------------------------------------------------|
D|-4-5-4----2--------4-5-4----2---------4-5-4----2--------4-5-4----2----|
A|------------0-5---------------0-5----------------0-5---------------5--|
E|----------------------------------------------------------------------|
            

comments powered by Disqus
↑ Back to top | Blink Tabs for Dysentary Gary. Lyrics for acoustic guitar and electric guitar. Tablatures and chords are parodies/interpretations of the original songs. You may use it for private study, scholarship, research or language learning purposes only