» » »

Blink, Dont Leave Me Tabs (ver.1)

Artists:  A B C D E F G H I J K L M N O P Q R S T U V W X Y Z # 

Dont Leave Me Tabs (ver.1)

Blink Tabs
 Rating:
4/5 (4 votes)
Dont Leave Me lessons Tabs too difficult? Try these video lessons and learn fast
1
                Don't Leave Me

Intro
e------------|------------|------------|-----------------||
b------------|------------|------------|-----------------||
g------2-222-|------7-777-|------4-444-|-7-77-77-9-99-99-||
d------2-222-|------7-777-|------4-444-|-7-77-77-9-99-99-||
a-0000-0-000-|-0000-5-555-|-5555-2-222-|-5-55-55-7-77-77-||
E------------|------------|------------|-----------------||
Pm....         ....         ....

e------------|------------|------------|-----------------|
b------------|------------|------------|-----------------|
g------2-222-|------7-777-|------4-444-|-7-77-77-9-99-99-|
d------2-222-|------7-777-|------4-444-|-7-77-77-9-99-99-|
a-7777-0-000-|-0000-5-555-|-5555-2-222-|-5-55-55-7-77-77-|
E------------|------------|------------|-----------------|
Pm....         ....         ....

Verse
  A5  D5 B5 D5 A5 D5 B5 D5  E5
e----|--|--|--|--|--|--|-------------|
b----|--|--|--|--|--|--|-------------|
g-2~-|--|--|--|--|--|--|-------------|
d-2~-|--|--|--|--|--|--|-------------|
a-0~-|--|--|--|--|--|--|----55555555-|
E----|--|--|--|--|--|--|-------------|
Pm                          ........

**Note
Chorus             1st/3rd end....... 2nd end.......... 4rth end.
e-----------------|-----------------|------------------|-----------------|
b-----------------|-----------------|------------------|-----------------|
g-----------------|-----------------|-7-77-77-9--------|-7-77-77-7777777-|
d-2-22-22-4-44-44-|-7-77-77-9-99-99-|-7-77-77-9--------|-7-77-77-7777777-|
a-0-00-00-2-22-22-|-5-55-55-7-77-77-|-5-55-55-7-777777-|-5-55-55-5555555-|
E-----------------|-----------------|------------------|-----------------|
Pm                                              ......

**Note
first time around chorus play third endind on fourth ending.
Second time around chorus play fourth ending into the bass solo.

Repeat Intro

Repeat Verse

Repeat Chorus


Bass Solo
  A5 E5  D5   A5 E5   D5   A5 E5   D5   A5 E5   D5
e------|----|-------|----|-------|----|-------|----|
b-10---|----|-------|----|-------|----|-------|----|
g-9----|----|-------|----|-------|----|-------|----|
d-7----|----|-------|----|-------|----|-------|----|
a-0----|----|-------|----|-------|----|-------|----|
E------|----|-------|----|-------|----|-------|----|
                                                Lets Try This...

Interlude
e-----------|  ----5----------|-----------------|
b----10-----|  ----x----------|-----------------|
g----x------|  ----2----------|-7-77-77-7-77-77-|
d-77-7--777-|X7---------------|-7-77-77-7-77-77-|
a-00----000-|  -00---55555555-|-5-55-55-5-55-55-|
E-----------|  ---------------|-----------------|

Repeat Chorus

Outro
e-----|-----|-----|--------|-----|
b-----|-----|-----|-----10-|-----|
g-2---|-(2)-|-(2)-|-----9--|-2---|
d-2---|-(2)-|-(2)-|-----7--|-2---|
a-0---|-(0)-|-(0)-|-----0--|-0---|
E-----|-----|-----|--------|-----|


By John Black
            
Submit corrections

comments powered by Disqus
↑ Back to top | Blink Tabs for Dont Leave Me. Lyrics for acoustic guitar and electric guitar. 1 Tablatures and chords are parodies/interpretations of the original songs. You may use it for private study, scholarship, research or language learning purposes only