» » »

Blink, Degenerate Tabs (ver.1)

Artists:  A B C D E F G H I J K L M N O P Q R S T U V W X Y Z # 

Degenerate Tabs (ver.1)

Blink Tabs
Rating:
0/5 (0 votes)
Hard to play? Try these video lessons and learn fast.
                
Verso  

E||--------------------||
B||--------------------||
G||------10---8--------||   4X
D||--8---10---8---10---||
A||--8----8---6---10---||
E||--6-------------8---||

Riff :

E||-------------------------------||
B||-------------------------------||
G||---3------2-------3-------2----|| 4X 
D||-----3------3---1---3-------3--||
A||-1----------------------3------||
E||--------1----------------------||

Coro  

E||-------------------||
B||-------------------||   
G||------10---8--10---||  2X
D||--8---10---8--10---||
A||--8----8---6---8---||
E||--6----------------||

E||--------------------------------------------||
B||--------------------------------------------||
G||--3-2-----3-2-5-3-2-3-5--(2X)-------- -3r---||
D||------5-3-----------------------------------||
A||--------------------------------------------||
E||--------------------------------------------||

E||---------------------------------------------------------------------||
B||-3-4-6-4-3-4b---3---3-4-3--------------------------------------------||
G||--------------5---5-------5-3-3-2---3p2-----3p2----------------------||
D||----------------------------------5-----5-3-----5-3-0-1-1-3-3-1-0----||
A||------------------------------------------------------------------1r-||
E||---------------------------------------------------------------------||
            

comments powered by Disqus
↑ Back to top | Blink Tabs for Degenerate. Lyrics for acoustic guitar and electric guitar. Tablatures and chords are parodies/interpretations of the original songs. You may use it for private study, scholarship, research or language learning purposes only