» » »

Blink, Damnit Tabs (ver.1)

Artists:  A B C D E F G H I J K L M N O P Q R S T U V W X Y Z # 

Damnit Tabs (ver.1)

Blink Tabs
Rating:
0/5 (0 votes)
Damnit lessons Tabs too difficult? Try these video lessons and learn fast
                MAIN RIFF:(4x) 
e|----------------------------------------------------------------------| 
B|----------------------------------------------------------------------| 
G|----------------------------------------------------------------------| 
D|------------0-0-2------------0-0-2--------------0-0-2-----------2-2-0-| 
A|---3-3----------------------------------0-0---------------------------| 
E|----------------------3-3----------------------------------1-1--------| 

VERSE:(2x) 
e|----------------------------------------------------------------------| 
B|----------------------------------------------------------------------| 
G|---5--xxxxxx----------------------------------------------------------| 
D|---5--xxxxxx------5--xxxxxx-------7--xxxxxx------3--xxxxxx------------| 
A|---3--xxxxxx------5--xxxxxx-------7--xxxxxx------3--xxxxxx------------| 
E|------------------3--xxxxxx-------5--xxxxxx------1--xxxxxx------------| 

(1)  It's alright        to tell me     what you think    about me 
(2)  I won't try         to argue         or hold it        against you   

VERSE: (2x) 
e|----------------------------------------------------------------------| 
B|----------------------------------------------------------------------| 
G|---5--5-5-5-----------------------------------------------------------| 
D|---5--5-5-5-----------5--5-5-5-----------7--7-7-7------------3--3-3-3-| 
A|---3--3-3-3-----------5--5-5-5-----------7--7-7-7------------3--3-3-3-| 
E|----------------------3--3-3-3-----------5--5-5-5------------1--1-1-1-| 
(3) I know that    you're leaving  you must have   your reasons 
(4) The season     is calling       your pictures    are falling down 
  
MAIN RIFF: (2x) 
e|----------------------------------------------------------------------| 
B|----------------------------------------------------------------------| 
G|----------------------------------------------------------------------| 
D|---------0-2---------0-0-2---------------0-0-2---------2-2-0---------------| 
A|---3-3-----------------------------0-0--------------------------------| 
E|-------------------3-3-----------------------------1-1----------------| 

THE NEXT 2 VERSES GO JUST LIKE THE FIRST ONE. 

VERSE 2: 
(1) The steps that     I retrace      a sad look      on your face 
(2) The timing       and structure   did you hear 
(3) A day late        a buck short    I'm writing     the report 
(4) I'm losing          and failing     when I move    I'm flailing now 

CHORUS: 
e|----------------------------------------------------------------------| 
B|----------------------------------------------------------------------| 
G|----5-----------------------------------------------------------------| 
D|----5-----------------------------------5------------------------7----| 
A|----3-----------------------------------5------------------------7----| 
E|----------------------------------------3------------------------5----| 
      And it will happen once again      you'll turn to a friend             

e|----------------------------------------------------------------------| 
B|----------------------------------------------------------------------| 
G|------------------------------------------------------------------5---| 
D|----------------------------------3-------------------------------5---| 
A|----------------------------------3-------------------------------3---| 
E|----------------------------------1-----------------------------------| 
     someone that understands    sees through the master plan 

e|----------------------------------------------------------------------| 
B|----------------------------------------------------------------------| 
G|----------------------------------------------------------------------| 
D|---------------------------5----------------------------------7-------| 
A|---------------------------5----------------------------------7-------| 
E|---------------------------3----------------------------------5-------| 
    But everybody's gone    and I've been here for too long 

e|----------------------------------------------------------------------| 
B|----------------------------------------------------------------------| 
G|----------------------------------------------------------------------| 
D|------------------------------3---------------------------------------| 
A|------------------------------3---------------------------------------| 
E|------------------------------1---------------------------------------| 
    to face this on my own     Well I guess this is growing up. 

MAIN RIFF: (2x) 

CHORUS 

MAIN RIFF:(2X) 

SOLO: 
e|---0--------------0--------0------------0-------0-----0-------------0-------0-----------0------0----| 
B|-----1---------3---1--------1-------3----1-3----1-----1-------3---1-------1------3---1-3----1-------| 
G|-------0------------------------0----------------------------0---------------------0----------------| 
D|----------------------------------------------------------------------------------------------------| 
A|----------------------------------------------------------------------------------------------------| 
E|----------------------------------------------------------------------------------------------------|
            

comments powered by Disqus
↑ Back to top | Blink Tabs for Damnit. Lyrics for acoustic guitar and electric guitar. Tablatures and chords are parodies/interpretations of the original songs. You may use it for private study, scholarship, research or language learning purposes only