>
 >
Carousel 2

Carousel 2 Guitar Tabs

Blink - Carousel 2 chords, tabs, tablatures, lyrics

Guitar lessons | Add/correct | Request | Top 50 tabs Artists:  A B C D E F G H I J K L M N O P Q R S T U V W X Y Z 0-9

Carousel 2 Guitar Tabs – Blink

CD, Sheet music, Poster

Do you like Carousel 2? Share with your friends now
ChordsTabsTabs v2Tabs v3
I havent really seen any good carousel tabs out there...ive only seen bits and pieces,
so now ill put them all together the way i learned for all of you to enjoy...


Bass (INTRO_ONE)
G|---11-11-12-14-12-11------6-6-7-9-7-6-----9-9-11-12-11-9-11-----7-----7---7|
D|12-------------------12-7-------------7-9-------------------5-5---5-5---5--|
A|---------------------------------------------------------------------------|
E|---------------------------------------------------------------------------|

G|---11-11-12-14-12-11------6-6-7-9-7-6-----9-9-11-12-12-11-11-7-7-7-7-7-7-7-|
D|12-------------------12-7-------------7-9--------------------5-5-5-5-5-5-5-|
A|---------------------------------------------------------------------------|
E|---------------------------------------------------------------------------|


Bass (INTRO_TWO)(four times)
G|11-11-1111-11-11-9-9-99-9-9-11-11-1111-11-11-7-7-77-7-7|
D|-0--0--0-0--0--0-7-7-77-7-7--9--9--9-9--9--9-5-5-55-5-5|
A|-------------------------------------------------------|
E|-------------------------------------------------------|


Guitar Intro (CLEAN) (after base plays INTRO_TWO twice)
e|------------------------------------------------------|
B|------------------------------------------------------|
G|7-7-77-7-7--9-9-99-9-9--11-11-1111-11-11--7-7-77-7-7--|
D|------------------------------------------------------|
A|5-5-55-5-5--7-7-77-7-7---9--9--9-9--9--9--5-5-55-5-5--|
E|------------------------------------------------------|

e|------------------------------------------------------|
B|------------------------------------------------------|
G|------------------------------------------------------|
D|7-7-77-7-7--------------------------------------------|
A|5-5-55-5-5-7-7-77-7-7--9-9-99-9-9--3-3-33-3-3---------|
E|-----------5-5-55-5-5--7-7-77-7-7--5-5-55-5-5---------|



Guitar (NOW KICK IN DISTORTION)(TWO TIMES)
e|------------------------------------------------------|
B|------------------------------------------------------|
G|------------------------------------------------------|
D|7-7-77-7-7--------------------------------------------|
A|5-5-55-5-5-7-7-77-7-7-9-9-99-9-9-5-5-55-5-5-----------|
E|-----------5-5-55-5-5-7-7-77-7-7-3-3-33-3-3-----------|


(THEN THIS)
e|------------------------------------------------------|
B|------------------------------------------------------|
G|------------------------------------------------------|
D|------------------------------------------------------|
A|4-5--4-5-555555-7-5-4-4-4/5---4-4-4/5-55-7-4-5-7-5-4--|
E|------------------------------------------------------|

(THEN COMES THIS PART...)
e|------------------------------------------------------|
B|------------------------------------------------------|
G|------------------------------------------------------|
D|------------------------------------------------------|
A|9-9-9-10-9-7-7-7-7777-9-9-9-10-9-1212-1010-99-7-------|
E|------------------------------------------------------|

e|------------------------------------------------------|
B|------------------------------------------------------|
G|------------------------------------------------------|
D|--------------------------0-4-0-5-7-5-4-0-4-5-4-0-----|
A|9-9-9-10-9-7-7-7-7777-9-7-----------------------------|
E|------------------------------------------------------|


(NOW THIS)(FOUR TIMES)
e|------------------------------------------------------|
B|------------------------------------------------------|
G|------------------------------------------------------|
D|7-7-7777----------------------------------------------|
A|5-5-5555-7-7-7777-9-9-9999-5-5-5555-------------------|
E|---------5-5-5555-7-7-7777-3-3-3333-------------------|

(AND THIS)(FOUR TIMES)(BUT, on fourth time they pause...)
                      (listen to the song to hear when..)
e|------------------------------------------------------|
B|------------------------------------------------------|
G|------------------------------------------------------|
D|7-7-777-7-9-9-999-9-----------------------------------|
A|5-5-555-5-7-7-777-7-7-7-777-7-5-5-555-5---------------|
E|--------------------5-5-555-5-3-3-333-3---------------|

(THEN BACK TO THIS PART)
e|------------------------------------------------------|
B|------------------------------------------------------|
G|------------------------------------------------------|
D|------------------------------------------------------|
A|9-9-9-10-9-7-7-7-7777-9-9-9-10-9-1212-1010-99-7-------|
E|------------------------------------------------------|

e|------------------------------------------------------|
B|------------------------------------------------------|
G|------------------------------------------------------|
D|--------------------------0-4-0-5-7-5-4-0-4-5-4-0-----|
A|9-9-9-10-9-7-7-7-7777-9-7-----------------------------|
E|------------------------------------------------------|


(THEN THIS PART AGAIN)(Two TImes)
e|------------------------------------------------------|
B|------------------------------------------------------|
G|------------------------------------------------------|
D|7-7-77-7-7--------------------------------------------|
A|5-5-55-5-5-7-7-77-7-7--9-9-99-9-9--3-3-33-3-3---------|
E|-----------5-5-55-5-5--7-7-77-7-7--5-5-55-5-5---------|


(THEN BASE SOLO...AND GUITAR COMES BACK WITH THIS)(4 times)
e|-------------------------------------------------------|
B|-------------------------------------------------------|
G|-------------------------------------------------------|
D|--4-5-7-5-4--------------------------------------------|
A|5-----------5---4-5-7-5-4-----6-7-9-7-6-----2-3-5-3-2--|
E|--------------5-----------5-7-----------7-3-----------3|

(THEN THIS AGAIN)(Four times)(Fourth time also has the pause)
e|------------------------------------------------------|
B|------------------------------------------------------|
G|------------------------------------------------------|
D|7-7-777-7-9-9-999-9-----------------------------------|
A|5-5-555-5-7-7-777-7-7-7-777-7-5-5-555-5---------------|
E|--------------------5-5-555-5-3-3-333-3---------------|


AND THAT'S IT...





Comments


Popular Blink tabs & chords
A New Hope Tabs
All The Small Things 1 Tabs
Always 1 Tabs
Asthenia Tabs
Feeing This Tabs
Feeling This Tabs
Go 100% Tabs
I Miss You Tabs
Voyeur Tabs
Wasting Time Tabs


Song lyrics



↑ Back to top | Tablatures and chords are parodies/interpretations of the original songs. You may use it for private study, scholarship, research or language learning purposes only
© 2014 AZChords.com Contact us | Privacy policy | DMCA | Add/correct tabs | Request tabs | Top 50 tabs