>
 >
Boring

Boring Guitar Tabs

Blink - Boring chords, tabs, tablatures, lyrics

Guitar lessons | Add/correct | Request | Top 50 tabs Artists:  A B C D E F G H I J K L M N O P Q R S T U V W X Y Z 0-9

Boring Guitar Tabs – Blink

CD, Sheet music, Poster

Do you like Boring? Share with your friends now
TabsTabs v2
PM = Palm Mute
h = hammer on
p = pull off
\ = slide down

Intro
e-------------------------------|
B-------------------------------|
G-------------------------------|
D-------------------------------|
A--0-4-0-0-5-0-4p0---2-----2p0--|
E------------------0---0-0------|
   PM:::::::::::::::::::::|

Riff A 
e------------------------------------------------------|
B-----2------2-------------7-------------2----------7--|
G-----2------2------2------7------1------2----------7--|
D-----2------2------4------7------2------2----------7--|
A-0-0-0--4-4-4------4--5-5-5------2--4-4-4------2p0-5--|
E---------------2-2-2---------0-0-0---------0-0--------|
  PM:::::::::::::::::::::::::::::::::::::::::::|

Riff B
e--5-5-------4-4-----------------|
B--5-5--6-6--4-4--7-7-7-9-9-9-9--|
G--6-6--6-6--5-5--7-7-7-9-9-9-9--|
D--7-7--6-6--6-6--7-7-7-9-9-9-9--|
A--7-7--4-4--6-6--5-5-5-7-7-7-7--|
E--5-5-------4-4-----------------|

Fill A
e-5-5--------4-4----------------|
B-5-5--6-6-6-4-4-9-9-9-9-9------|
G-6-6--6-6-6-5-5-9-9-9-9-9------|
D-7-7--6-6-6-6-6-9-9-9-9-9------|
A-7-7--4-4-4-6-6-7-7-7-7-7--7\--|
E-5-5--------4-4----------------|

Riff C
e-----------------------------------------------------------------|
B-----------------------------------------------------------------|
G-----------------------------------------------------------------|
D-7-7-7-6-6-6---------------------------6-6-6---------------------|
A-------------7-7-7-7-7-7-7-7-7-7-5-5-5-------7-7-7-0-0-0-0-0-0-0-|
E-----------------------------------------------------------------|

Fill B
e-----|
B-----|
G-2-2-|
D-2-2-|
A-0-0-|
E-----|

Fill C
e-5\-|
B-5\-|
G-6\-|
D-7\-|
A-7\-|
E-5\-|


Order:

Intro  x8
Riff A x2
Riff B x3
Fill A x1
Intro  x4
Riff A x2
Riff B x3
Fill A x1
Riff C x4
Fill B x1
Riff B x1
Fill C x1





Comments


Popular Blink tabs & chords
100% What Went Wrong Tabs
A Dog Tabs
Aliens Exist Tabs
All The Small Things Tabs
Asthenia 1 Tabs
I Miss You 100% Tabs
Im Sorry Tabs
Obvious 1 Tabs
Stockholm Syndrome 1 Tabs
Whats My Age Again 2 Tabs


Song lyrics



↑ Back to top | Tablatures and chords are parodies/interpretations of the original songs. You may use it for private study, scholarship, research or language learning purposes only
© 2014 AZChords.com Contact us | Privacy policy | DMCA | Add/correct tabs | Request tabs | Top 50 tabs