» » »

Blink, Anthem Tabs (ver.5)

Artists:  A B C D E F G H I J K L M N O P Q R S T U V W X Y Z # 

Anthem Tabs (ver.5)

Blink Tabs
 Rating:
4/5 (4 votes)
Anthem lessons Tabs too difficult? Try these video lessons and learn fast
1
                Guitar 1
E|------------------------------------------------------------------------------|
B|--8---8---6---6---5---5---6---6-----------------------------------------------|  X8
G|----5---5---5---5---5---5---5---5---------------------------------------------|
D|------------------------------------------------------------------------------|
A|------------------------------------------------------------------------------|
E|------------------------------------------------------------------------------|

Guitar 2
E|------------------------------------------------------------------------------|
B|------------------------------------------------------------------------------|  X5
G|------------------------------------------------------------------------------|
D|---5555-----------------------------------------------------------------------|
A|---5555-----------------------------------------------------------------------|
E|---3333-----------------------------------------------------------------------|
  __________
     P.M.

Guitar 2
E|------------------------------------------------------------------------------|
B|------------------------------------------------------------------------------| 3x
G|------------------------------------------------------------------------------|
D|-------0h3-----2-----0h3-----2-----0h3-----2-----0-----0----------------------|
A|---3-3-----3-3---3-3-----3-3---3-3-----3-3---3-3---3-3------------------------|
E|------------------------------------------------------------------------------|

E|---------------------------------------------------------------------------------|
B|---------------------------------------------------------------------------------| 
G|---------------------------------------------------------------------------------|
D|-------0h3-----2-----0h3-----2-----0h3-----2-------------------------------------|
A|---3-3-----3-3---3-3-----3-3---3-3-----3-3---------------------------------------|
E|---------------------------------------------------------------------------------|

E|---------------------------------------------------------------------------------|
B|---------------------------------------------------------------------------------|
G|-9-9-9-10-10-9-5-5-5-7-7-7-9-9-9-10-10-9-5-5-5-7-7-7-9-9-9-10-10-9-5-5-5-7-7-7---|
D|-x-x-x--x--x-x-x-x-x-x-x-x-x-x-x--x--x-x-x-x-x-x-x-x-x-x-x--x--x-x-x-x-x-x-x-x---|
A|-7-7-7--8--8-7-3-3-3-5-5-5-7-7-7--8--8-7-3-3-3-5-5-5-7-7-7--8--8-7-3-3-3-5-5-5---|
E|---------------------------------------------------------------------------------|

E|---------------------------------------------------------------------------------|
B|---------------------------------------------------------------------------------|
G|----9-9-9-10-10-5-5-5-5-5-5-5-5-5~~~---------------------------------------------|
D|----x-x-x--x--x-x-x-x-x-x-x-x-x-x~~~---------------------------------------------|
A|----7-7-7--8--8-3-3-3-3-3-3-3-3-3~~~---------------------------------------------|
E|---------------------------------------------------------------------------------|

E|------------------------------------------------------------------------------|
B|------------------------------------------------------------------------------| 3x
G|------------------------------------------------------------------------------|
D|-------0h3-----2-----0h3-----2-----0h3-----2-----0-----0----------------------|
A|---3-3-----3-3---3-3-----3-3---3-3-----3-3---3-3---3-3------------------------|
E|------------------------------------------------------------------------------|

E|---------------------------------------------------------------------------------|
B|---------------------------------------------------------------------------------| 
G|---------------------------------------------------------------------------------|
D|-------0h3-----2-----0h3-----2-----0h3-----2-------------------------------------|
A|---3-3-----3-3---3-3-----3-3---3-3-----3-3---------------------------------------|
E|---------------------------------------------------------------------------------|

E|---------------------------------------------------------------------------------|
B|---------------------------------------------------------------------------------|
G|---9/5-555555------------------555555--------------------------------------------|
D|---X/5-555555--777777--333333--555555--777777--333333----------------------------|
A|---7/3-333333--777777--333333--333333--777777--333333----------------------------|
E|---------------555555--111111----------555555--111111----------------------------|
         ______________________________________________
                               P.M.

E|---------------------------------------------------------------------------------|
B|---------------------------------------------------------------------------------|
G|------------------------5~~~-----------------------------------------------------|
D|------------------------X~~~-----------------------------------------------------|
A|-----7------5-------3---3~~~-----------------------------------------------------|
E|---5---5--3---3--1---------------------------------------------------------------|

E|---------------------------------------------------------------------------------|
B|---------------------------------------------------------------------------------|
G|---9/5-555555------------------555555--------------------------------------------|
D|---X/5-555555--777777--333333--555555--777777--333333----------------------------|
A|---7/3-333333--777777--333333--333333--777777--333333----------------------------|
E|---------------555555--111111----------555555--111111----------------------------|
         ______________________________________________
                               P.M.

E|---------------------------------------------------------------------------------|
B|---------------------------------------------------------------------------------|
G|---------------------------------------------------------------------------------|
D|---------------------------------------------------------------------------------|
A|-----7------5-------3------------------------------------------------------------|
E|---5---5--3---3--1---------------------------------------------------------------|

E|------------------------------------------------------------------------------|
B|------------------------------------------------------------------------------|  3X
G|-------------------555555-----------------------------------------------------|
D|---222222--333333--555555--555555---------------------------------------------|
A|---222222--333333--333333--555555---------------------------------------------|
E|---000000--111111----------333333---------------------------------------------|

E|---------------------------------------------------------------------------------|
B|---------------------------------------------------------------------------------|
G|---------------------------------------------------------------------------------|
D|---222222--3---------------------------------------------------------------------|
A|---222222--3---------------------------------------------------------------------|
E|---000000--1---------------------------------------------------------------------|

Guitar 2
E|---------------------------------------------------------------------------------|
B|---------------------------------------------------------------------------------|
G|----555555------------------555555-----------------------------------------------|
D|----555555--777777--333333--555555--777777--3------------------------------------|
A|----333333--777777--333333--333333--777777--3------------------------------------|
E|------------555555--111111----------555555--1------------------------------------|
      _________________________________________
                               P.M.

E|---------------------------------------------------------------------------------|
B|---------------------------------------------------------------------------------|
G|-9-9-9-10-10-9-5-5-5-7-7-7-9-9-9-10-10-9-5-5-5-7-7-7-9-9-9-10-10-9-5-5-5-7-7-7---|
D|-x-x-x--x--x-x-x-x-x-x-x-x-x-x-x--x--x-x-x-x-x-x-x-x-x-x-x--x--x-x-x-x-x-x-x-x---|
A|-7-7-7--8--8-7-3-3-3-5-5-5-7-7-7--8--8-7-3-3-3-5-5-5-7-7-7--8--8-7-3-3-3-5-5-5---|
E|---------------------------------------------------------------------------------|

E|---------------------------------------------------------------------------------|
B|---------------------------------------------------------------------------------|
G|----9-9-9-10-10-5-5-5-5-5-5-5-5-5~~~---------------------------------------------|
D|----x-x-x--x--x-x-x-x-x-x-x-x-x-x~~~---------------------------------------------|
A|----7-7-7--8--8-3-3-3-3-3-3-3-3-3~~~---------------------------------------------|
E|---------------------------------------------------------------------------------|

E|---------------------------------------------------------------------------------|
B|---------------------------------------------------------------------------------|
G|---9/5-555555------------------555555--------------------------------------------|
D|---X/5-555555--777777--333333--555555--777777--333333----------------------------|
A|---7/3-333333--777777--333333--333333--777777--333333----------------------------|
E|---------------555555--111111----------555555--111111----------------------------|
         ______________________________________________
                               P.M.

E|---------------------------------------------------------------------------------|
B|---------------------------------------------------------------------------------|
G|---------------------------------------------------------------------------------|
D|---------------------------------------------------------------------------------|
A|-----7------5-------3~-----------------------------------------------------------|
E|---5---5--3---3--1---------------------------------------------------------------|

E|------------------------------------------------------------------------------|
B|------------------------------------------------------------------------------|  3X
G|-------------------555555-----------------------------------------------------|
D|---222222--333333--555555--555555---------------------------------------------|
A|---222222--333333--333333--555555---------------------------------------------|
E|---000000--111111----------333333---------------------------------------------|

E|---------------------------------------------------------------------------------|
B|---------------------------------------------------------------------------------|
G|---------------------------------------------------------------------------------|
D|---222222--3---------------------------------------------------------------------|
A|---222222--3---------------------------------------------------------------------|
E|---000000--1---------------------------------------------------------------------|

Guitar 2
E|---------------------------------------------------------------------------------|
B|---------------------------------------------------------------------------------|
G|----555555------------------555555-----------------------------------------------|
D|----555555--777777--333333--555555--777777--3------------------------------------|
A|----333333--777777--333333--333333--777777--3------------------------------------|
E|------------555555--111111----------555555--1------------------------------------|
      _________________________________________
                               P.M.

Bass Solo Part.

E|------------------------------------------------------------------------------|
B|------------------------------------------------------------------------------|  3X
G|-------------------555555-----------------------------------------------------|
D|---222222--333333--555555--555555---------------------------------------------|
A|---222222--333333--333333--555555---------------------------------------------|
E|---000000--111111----------333333---------------------------------------------|

E|---------------------------------------------------------------------------------|
B|---------------------------------------------------------------------------------|
G|---------------------------------------------------------------------------------|
D|---222222--3---------------------------------------------------------------------|
A|---222222--3---------------------------------------------------------------------|
E|---000000--1---------------------------------------------------------------------|

Guitar 2
E|---------------------------------------------------------------------------------|
B|---------------------------------------------------------------------------------|
G|----555555------------------555555-----------------------------------------------|
D|----555555--777777--333333--555555--777777--3------------------------------------|
A|----333333--777777--333333--333333--777777--3------------------------------------|
E|------------555555--111111----------555555--1------------------------------------|
      _________________________________________
                               P.M.


E|------------------------------------------------------------------------------|
B|------------------------------------------------------------------------------| 3x
G|------------------------------------------------------------------------------|
D|-------0h3-----2-----0h3-----2-----0h3-----2-----0-----0----------------------|
A|---3-3-----3-3---3-3-----3-3---3-3-----3-3---3-3---3-3------------------------|
E|------------------------------------------------------------------------------|

E|---------------------------------------------------------------------------------|
B|---------------------------------------------------------------------------------| 
G|---------------------------------------------------------------------------------|
D|-------0h3-----2-----0h3-----2-----0h3-----2-------------------------------------|
A|---3-3-----3-3---3-3-----3-3---3-3-----3-3---------------------------------------|
E|---------------------------------------------------------------------------------|

Guitar 2
E|---------------------------------------------------------------------------------|
B|--8---8---6---6---5---5---6---6--------------------------------------------------| 
G|----5---5---5---5---5---5---5---5------------------------------------------------|
D|---------------------------------------------------------------------------------|
A|---------------------------------------------------------------------------------|
E|---------------------------------------------------------------------------------|

E|---------------------------------------------------------------------------------|
B|-8---8---6---6---5---5-----------------------------------------------------------|
G|---5---5---5---5---5---5---------------------------------------------------------|
D|---------------------------------------------------------------------------------|
A|---------------------------------------------------------------------------------|
E|---------------------------------------------------------------------------------|
            
Submit corrections

comments powered by Disqus
↑ Back to top | Blink Tabs for Anthem. Lyrics for acoustic guitar and electric guitar. 1 Tablatures and chords are parodies/interpretations of the original songs. You may use it for private study, scholarship, research or language learning purposes only