>
 >
Always

Always Guitar Tabs

Blink - Always chords, tabs, tablatures, lyrics

Guitar lessons | Add/correct | Request | Top 50 tabs Artists:  A B C D E F G H I J K L M N O P Q R S T U V W X Y Z 0-9

Always Guitar Tabs – Blink

CD, Sheet music, Poster

Do you like Always? Share with your friends now
TabsTabs v2Tabs v3
Guitar comes in 0:34 
Palm muted
e|---------------------------
B|---------------------------
G|--4------3-----------------
D|--4-x8---4-x8---6----------
A|--2------1------6-x12------
E|----------------4----------
 .......................

Pre-Chorus
e|----------------------------------------
B|----------4-------4------------4------4-
G|-----4-------4------------4------4------
D|----------------------------------------
A|-2-2---2-------2------4-4---4-------4---
E|----------------------------------------

e|------------------------------------------
B|-----------4--------4---------------------
G|-----4--------4---------------4---------4-
D|------------------------------------------
A|------------------------------------------
E|-4-4----4--------4-------0-0-----0-0-0----


Chorus 
e|-----------------------------------------
B|-----------------------------------------
G|-4------8--------------------------------
D|-4-x8---8-x8----6-------2----------------
A|-2------6-------6-x8----2-x8-------------
E|----------------4-------0----------------


2nd Verse 
e|-------------------------------
B|-------------------------------
G|-------------------------------
D|-------------------------------
A|-------------------------------
E|-7--0--7--5--0--5--7--0--3--0--


Interlude
1st Guitar
e|-------------------------------------------------
B|-4-----4-----4-----4---5--4-----4-----4-----4--5-
G|----4-----4-----4------------4-----4-----4-------
D|-------------------------------------------------
A|-------------------------------------------------
E|-------------------------------------------------

e|-------------------------------------------------
B|-4-----4-----4-----4--5--4----4--5--4----2--4----
G|----4-----4-----4-----------4---------4----------
D|-------------------------------------------------
A|-------------------------------------------------
E|-------------------------------------------------

2nd Guitar
e|------------------------------------------|
B|------------------------------------------|
G|-4-------3-------4-------8-----/6/----4---|
D|-x-x8----x-x8----x-x8----x-x4--/x/----x---|x2
A|-2-------1-------2-------6-----/4/----2---|
E|------------------------------------------|

then
e|-------------------|
B|-------------------|
G|-4-/-6---8---6---4-|
D|-x---x---x---x---x-|x2
A|-2-/-4---6---4---2-|
E|-------------------|





Comments


Popular Blink tabs & chords
Carousel Chords
Boring Tabs
Degenerate Tabs
Easy Target Tabs
First Date Tabs
Heres Your Letter 1 Tabs
Stay Together For The Kids 1 Tabs
Story Of A Lonely Guy 1 Tabs
Touchdown Boy 1 Tabs
Whats My Age Again 2 Tabs


Song lyrics



↑ Back to top | Tablatures and chords are parodies/interpretations of the original songs. You may use it for private study, scholarship, research or language learning purposes only
© 2014 AZChords.com Contact us | Privacy policy | DMCA | Add/correct tabs | Request tabs | Top 50 tabs