» » »

Blind Willie Mctell, Warm It Up To Me Tabs (ver.1)

Artists:  A B C D E F G H I J K L M N O P Q R S T U V W X Y Z # 

Warm It Up To Me Tabs (ver.1)

Blind Willie Mctell Tabs
 Rating:
4/5 (4 votes)
Warm It Up To Me lessons Tabs too difficult? Try these video lessons and learn fast
1
                WARM IT UP TO ME
Blind Willie McTell with Curly Weaver
[Recorded New York, 14 Sept. 1933 (14008-2) Vo-02595]


I did the tab mostly from the intro it seems to be what's going on in the 
verses too. The quality of the recording is poor. Curly Weaver and Blind 
Willie Mc Tell are both playing. So I included distinct (audible) parts 

I try to tab what I hear thought it's not always how I play it. Some of the 
fingering was awkward for me in measures so I may omit a bass note here and 
there. Have fun!

(Capo on 1st fret)


/Take a alittle trip to a /mountain top
/Show these Southern women how the /eagle Rock You gotta 

/warm it up to me /You gotta /warm it up to me
/Papa runnin' hot /Mama got get hiim /cold

/Tell you like Tobanna told the /kin of the South
/Get another man got a/nother gal
(chorus)


|-----------------------|----------------------|------------------0----|
|-----------------------|----------------------|-----------------------|
|--2----2----0----------|--0---------0---------|-------3----2--0-------|
|-------0-------2--0----|-------2---------0----|-------0----------2----|
|-----------------------|----------------------|-----------------------|
|--3---------3----------|--3---------3---------|--3---------3----------|

                                                         
-----------------------|----------------------|------------------------|
-----------------------|----------------------|------------------------|
--0----------0---------|-------2---------2----|--0--2--0-----0---------|
-----2--3--------------|--2-------------------|-----------2------------|
------------------2----|-------3---------3----|--------3----------1----|
--3----------3---------|------------3---------|--------------3---------|
                                                         
----------------------|----------------0--1----|------------------------|
-------0----0----1----|--3--0-------3----------|-------3-------3--------|
----------------------|--------0---------------|---------------------3--|
----------------------|--0---------------------|-------0----------0-----|
--2----2----2----2----|-----2------------------|--0---------0-----------|
----------------------|--------3---------------|------------------------|
                                                        
--0--0--0---------------|------------------------|----------------------|
-------------3--0-------|------------------------|-------3----3---------|
------------------------|--0------------0--------|--0--------------0----|
--0-----2----0----------|-------3----2-----2--0--|-------0----0---------|
-------------------2----|-------2----------------|----------------------|
------------------------|--3---------------------|--3-------------------|


Now if 
/you don't believe I can /warm you right 
/Take to your house and let me /stay all night
(chorus)

When you see my Mama standing at the door 
Papa wound up then Mama won't go
(chorus)

(2nd guitar for verses 3 & 4)
|----------------------|---------------------|----------------------|
|----------------------|---------------------|----------------------|
|----------------------|---------------------|----------------------|
|----------------------|------------0--------|----------------------|
|-------0----1----2----|--3----4-------------|----------------------|
|--3-------------------|---------------------|--0----1----2----3----|
         
---------------------|
---------------------|
---------------------|
-------0-------------|
--2------------------|
------------3--------|

(Last 2 meas of 4th chorus)

|----------------------|----------------------|
|----------------------|-------0---------0----|
|-------0--------------|-------0---------0----|
|------------4----3----|-------0---------0----|
|----------------------|--2-------------------|
|--3-------------------|------------3---------|


Guitar Break

|------------------------|----------------------|------------------------|
|------------------------|----------------------|------------------------|
|------------------------|----------------------|------------------------|
|------------------------|-------------0--------|------------------------|
|------------------0--1--|--2----3--4-----------|------------------0--1--|
|--0----1--2--3----------|----------------------|--0----1--2--3----------|
    
----------------------|------------------------|----------------------|
-------0---------0----|------------------------|----------------------|
-------0---------0----|-------3----2--0--------|--0----0----0---------|
-------0---------0----|-------0----------2--0--|-------0---------0----|
--2-------------------|------------------------|----------------------|
------------3---------|--3---------3-----------|--3---------3---------|
    
----------------------|------------------------|----------------------|
-------0----0----1----|--3--0------------------|--3----1----3---------|
----------------------|--------0---------------|----------------------|
----------------------|--0----------3s----4----|-------0---------0----|
--2----2----2----2----|-----2------------------|----------------------|
----------------------|--------3---------------|--3---------3---------|
     
--0--0--0---------------|-----------------------|----------------------|
-------------3--0--0----|-------3---------------|------------0---------|
------------------------|------------0--2-------|--0--------------0----|
--0-----2----0----------|-------0----------2----|-------0--------------|
-------------------2----|-----------------------|----------------------|
------------------------|--3---------3----------|--3---------3---------|


When you see my Mama standing at the door 
Papa wound up then Mama won't go

Don't be no "rat" nd don't be no "lame"
Don't let these women leave your heart in pain

Now look here boy don't get rough
These here words they're really loads of stuff

When your struttin a Cadillac, sold the Ford
Do your struttin on the runnin board

Don't be no "rat" nd don't be no "fool"
Don't let these here women break your rules

Look here boy if you're gonna be my friend
Let's go drink Moonshine again

Now take it easy late at night 
These here women are gonna treat you right
            
Submit corrections

comments powered by Disqus
↑ Back to top | Blind Willie Mctell Tabs for Warm It Up To Me. Lyrics for acoustic guitar and electric guitar. 1 Tablatures and chords are parodies/interpretations of the original songs. You may use it for private study, scholarship, research or language learning purposes only