» » »

Blind Willie Mctell, Come On Around To My House Mama Tabs (ver.1)

Artists:  A B C D E F G H I J K L M N O P Q R S T U V W X Y Z # 

Come On Around To My House Mama Tabs (ver.1)

Blind Willie Mctell Tabs
 Rating:
4.2/5 (5 votes)
Come On Around To My House Mama lessons Tabs too difficult? Try these video lessons and learn fast
                
Since I couldn't find a tab of one of the most talented and most underated
blues players on the net, I decided to do it by myself.

The intro/break is not EXCACTLY the same, but a good alternative...
Listen to the Song and you'll figure it out


Intro/Break:
   A#   A    G   G7    
e|---3----2----3-1-------1--------------3--1-----1--|
H|---3----2----0-0--3~---0---3--1-------------3--0--|
G|---3----2-----------------------2-1---------------|
D|--------------------------------------------------|
A|-1----0-------------------------------------------|
E|-----------3--------------------------------------|



 |----3-2-1--------------------------|
 |-3--------3-2-1---1~---2-----------|
 |----------------3-----------3------|
 |-----------------------------------|
 |-----------------------------------|
 |-----------------------------------|

Verse / Riff 1 :
   A#                        C7          F          
e|--------------------------------------------------|
H|----3-----3-----3-----3-------5-----5-------------|
G|----3-----3-----3-----3-------3-----3-----2-----2-|
D|----3-----3-----3-----3-------5-----5-----3-----3-|
A|-1-----1-----1-----1-------3-----3--------3-----3-|
E|---------------------------------------1-----1----|
 
     (Come  on around...)
  A#                        C7          F
e|---------------------------------------------------------------|
H|----3-----3-----3-----3-------5-----5----3-2--1-------3-2--1---|
G|----3-----3-----3-----3-------3-----3-----------3------------3-|
D|----3-----3-----3-----3-------5-----5--------------------------|
A|-1-----1-----1-----1-------3-----3-----------------------------|
E|---------------------------------------1-----------1-----------|
 
  (Call me a hotshot...)


Verse / Riff 2 :

e|--1~~~---4~~~---3~~~---2~~~---|
H|--3~~~---3~~~---4~~~---2~~~---|
G|--3~~~---3~~~---3~~~---1~~~---|
D|------------------------------|
A|------------------------------|
E|------------------------------|

 (Take it easy...)



Chorus:

  A#     A     G            C7     F      A#
e|---------------------------------------------------------|
H|----3-----2-------------------5-----------3-----3--------|
G|----3-----2-----4-----4-------3-----2-----3-----3--------|
D|----3-----2-----5-----5-------5-----3-----3-----3--------|
A|-1-----0--------5-----5----3--------3--1-----1-----------|
E|-------------3-----3-------------1-----------------------|

  (Come  on around...)
 
   G            C7     F     A#  
e|---------------------------------|
H|-----------------5------------3--|
G|----4-----4------3------2-----3--|
D|----5-----5------5------3-----3--|
A|----5-----5---3---------3--1-----|
E|-3-----3-------------1-----------|
  
   (In the evening...)

   G        C7    F     A#  
e|----------------------------------|
H|----------5--------------3-----3--|
G|----4-----3--2-----2-----3-----3--|
D|----5-----5--3-----3-----3-----3--|
A|----5--3-----3-----3--1-----1-----|
E|-3--------------1-----------------|

  (In the morning...)
            
Submit corrections

comments powered by Disqus
↑ Back to top | Blind Willie Mctell Tabs for Come On Around To My House Mama. Lyrics for acoustic guitar and electric guitar. Tablatures and chords are parodies/interpretations of the original songs. You may use it for private study, scholarship, research or language learning purposes only