>
 >
Too Close To Home

Too Close To Home Guitar Tabs

Blindsight - Too Close To Home chords, tabs, tablatures, lyrics

Guitar lessons | Add/correct | Request | Top 50 tabs Artists:  A B C D E F G H I J K L M N O P Q R S T U V W X Y Z 0-9

Too Close To Home Guitar Tabs – Blindsight

CD, Sheet music, Poster

Do you like Too Close To Home? Share with your friends now
Tabs
Verse:

Rhythm:
 A     D     F#m     E

Lead:
E--------------------------------------------
B----14----------7---------10----------9-----
G-------14---------7----------11---------9---
D-14-------14--7-----7--11-------11--9-----9- x 12
A--------------------------------------------
E--------------------------------------------

Bridge:

Rhythm:
 Bm     A     E

Lead:
E-----------------------------------------------------------
B-12~~~--10~~~--------12-10-12-10-10h12p10-10-12-10-12------
G---------------9~~~----------------------------------------
D----------------------------------------------------------- x 4
A-----------------------------------------------------------
E-----------------------------------------------------------

Chorus:

Rhythm:
 D5     A     E

Lead: W/ Bar
E-------------
B-7~--14~--9~-
G-7~--14~--9~-
D-7~--14~--9~- x 2
A-------------
E-------------

REPEAT WHOLE THING

Lyrics:

The day is long and the tide is high,
Somewhere out of reach
The sky is blue and so am I
On this dusty street.

We've got to break this ball and chain,
'Cause things will never be the same again.

Oh, it's too close to home,
And I know, know you've got to go,
Oh, it's too close to home.

I'll ride down the road 
In the blistering heat,
I'll sail the ocean of tides,
And I've booked myself
A frontrow seat.

I've got my troubles in my case
And my shame around my neck,
Fallen from grace too many times,
Time for a reality check.

This place is gonna get me nowhere,
Like a car that won't start,
But now I'm left with a broken halo,
And a broken heart.





Comments


Popular Blindsight tabs & chords
Bitch Tabs
Etheral Flame Tabs
Fading Away Tabs
High Tabs
Talking Of A Change Tabs


Song lyrics



↑ Back to top | Tablatures and chords are parodies/interpretations of the original songs. You may use it for private study, scholarship, research or language learning purposes only
© 2014 AZChords.com Contact us | Privacy policy | DMCA | Add/correct tabs | Request tabs | Top 50 tabs