>
 >
Oviedo

Oviedo Guitar Tabs

Blind Pilot - Oviedo chords, tabs, tablatures, lyrics

Guitar lessons | Add/correct | Request | Top 50 tabs Artists:  A B C D E F G H I J K L M N O P Q R S T U V W X Y Z 0-9

Oviedo Guitar Tabs – Blind Pilot

CD, Sheet music, Poster

Do you like Oviedo? Share with your friends now
ChordsChords v2TabsUkulele


|----1---1-1-1-5-3-1--1-1-1-----0--0-0-0-3-3-0-0-3----x--x-x-x------x--x-x-x---|
|----1---1-1-1-1-1-1--1-1-1-----1--1-1-1-1-1-1-1-1----3--3-3-3------3--3-3-3---|
|----2---2-2-2------------------0--0-0-0-0-0-0-0-0----3--3-3-3------3--3-3-3---|
|--3-3---3-3-3----------------2-2--2-2-2-2-2-2-2-2--3-3--3-3-3----3-3--3-3-3---|
|--0-0---0-0-0----------------3-3--3-3-3-3-3-3-3-3--1-1--1-1-1-0h1--1--1-1-1---|
|-----------------------------0------------------------------------------------|

---1-1--1-1-1----0-0--0-0-0--|--|
---1-1--1-1-1----1-1--1-1-1--|--|
---2-2--2-2-2----0-0--0-0-0--|--|this is the main riff of the song and intro
-3-3-3--3-3-3--2-2-2--2-2-2--|--|
-0-0-0--0-0-0--3-3-3--3-3-3--|--|
---------------0-------------|--|


choris:
|----x--------0------1-1--1-1-1----0-0--0-0-0-----|
|----3--------1------1-1--1-1-1----1-1--1-1-1-----|
|----3--------2------2-2--2-2-2----0-0--0-0-0-----|
|----3--------2----3-3-3--3-3-3--2-2-2--2-2-2-----|
|----1--------0----0-0-0--0-0-0--3-3-3--3-3-3-----|
|--------------------------------0----------------|


----x--------0------1-1--1-1-1----0-0--0-0-0-------|
----3--------1------1-1--1-1-1----1-1--1-1-1-------|
----3--------2------2-2--2-2-2----0-0--0-0-0-------|
----3--------2----3-3-3--3-3-3--2-2-2--2-2-2-------|
----1--------0----0-0-0--0-0-0--3-3-3--3-3-3-------|
--------------------------------0------------------|


----x---x-x-----x--x-x---1-1--1-1---0--0-0-0-------|
----3---3-3-----3--3-3---1-1--1-1---1--1-1-1-------|
----3---3-3-----3--3-3---2-2--2-2---0--0-0-0-------|
--3-3---3-3-3-3-3--3-3-3-3-3--3-3-3-2--2-2-2-------|
--1-1---1-1-1-1-1--1-1-1-0-0--0-0-0-3--3-3-3-------|
------------------------------------0--------------|
"i didn't know........control"

----x---x-x-----x--x-x---|--------------------------|
----3---3-3-----3--3-3---|--------------------------|
----3---3-3-----3--3-3---|--------------------------|
--3-3---3-3-3-3-3--3-3-3-|--------------------------|
--1-1---1-1-1-1-1--1-1-1-|--------------------------|
-------------------------|--------------------------|
"i didn't know.......invincible"





Comments


Popular Blind Pilot tabs & chords
I Buried A Bone 1 Chords
Keep You Right Chords
Paint Or Pollen Intro Chords
Poor Boy 1 Chords
The Colored Night Chords
Two Towns From Me Chords
We Are The Tide Chords
We Are The Tide 1 Chords
3 Rounds And A Sound Tabs
Go On Say It Ukulele


Song lyrics



↑ Back to top | Tablatures and chords are parodies/interpretations of the original songs. You may use it for private study, scholarship, research or language learning purposes only
© 2014 AZChords.com Contact us | Privacy policy | DMCA | Add/correct tabs | Request tabs | Top 50 tabs