» » »

Blind Pilot, I Buried A Bone Tabs (ver.1)

Artists:  A B C D E F G H I J K L M N O P Q R S T U V W X Y Z # 

I Buried A Bone Tabs (ver.1)

Blind Pilot Tabs
 Rating:
4/5 (4 votes)
I Buried A Bone lessons Tabs too difficult? Try these video lessons and learn fast
                Standard Tuning 

 Intro/verse
E|-1---1-1---1-1-1-|-----------------|-----------------|-----------------|
B|-1---1-1---1-1-1-|-3---3-3-5-5-5-5-|-6---6-6---6-6-6-|-3---3-3-5-5-5-5-|
G|-2---2-2---2-2-2-|-3---3-3-5-5-5-5-|-7---7-7---7-7-7-|-3---3-3-5-5-5-5-|
D|-3---3-3---3-3-3-|-3---3-3-5-5-5-5-|-7---7-7---7-7-7-|-3---3-3-5-5-5-5-|
A|-3---3-3---3-3-3-|-1---1-1-3-3-3-3-|-5---5-5---5-5-5-|-1---1-1-3-3-3-3-|
E|-1---1-1---1-1-1-|-----------------|-----------------|-----------------|
 | v ^ v ^ v ^ v ^ | v ^ v ^ v ^ v ^ | v ^ v ^ v ^ v ^ | v ^ v ^ v ^ v ^ |



|-1---1-1---1-1-1-|-----------------|-1---1-1---1-1-1-|---1-1-1---1-1-1-|
|-1---1-1---1-1-1-|-3---3-3-5-5-5-5-|-1---1-1---1-1-1-|---1-1-1---1-1-1-|
|-2---2-2---2-2-2-|-3---3-3-5-5-5-5-|-2---2-2---2-2-2-|---2-2-2---2-2-2-|
|-3---3-3---3-3-3-|-3---3-3-5-5-5-5-|-3---3-3---3-3-3-|---3-3-3---3-3-3-|
|-3---3-3---3-3-3-|-1---1-1-3-3-3-3-|-3---3-3---3-3-3-|---3-3-3---3-3-3-|
|-1---1-1---1-1-1-|-----------------|-1---1-1---1-1-1-|---1-1-1---1-1-1-|
| v ^ v ^ v ^ v ^ | v ^ v ^ v ^ v ^ | v ^ v ^ v ^ v ^ | v ^ v ^ v ^ v ^ |


Chorus:
|-----------------|-----------------|-1---1-1---1-1-1-|---1-1-1---1-1-1-|
|-6---6-6---6-6-6-|-5---5-5---5-5-5-|-1---1-1---1-1-1-|---1-1-1---1-1-1-|
|-7---7-7---7-7-7-|-5---5-5---5-5-5-|-2---2-2---2-2-2-|---2-2-2---2-2-2-|
|-7---7-7---7-7-7-|-5---5-5---5-5-5-|-3---3-3---3-3-3-|---3-3-3---3-3-3-|
|-5---5-5---5-5-5-|-3---3-3---3-3-3-|-3---3-3---3-3-3-|---3-3-3---3-3-3-|
|-----------------|-----------------|-1---1-1---1-1-1-|---1-1-1---1-1-1-|
| v ^ v ^ v ^ v ^ | v ^ v ^ v ^ v ^ | v ^ v ^ v ^ v ^ | v ^ v ^ v ^ v ^ |


|-----------------|-----------------|-----------------|-----------------|
|-6---6-6---6-6-6-|-3---3-3---3-3-3-|-5---5-5---5-5-5-|---5-5-5---5-5-5-|
|-7---7-7---7-7-7-|-3---3-3---3-3-3-|-5---5-5---5-5-5-|---5-5-5---5-5-5-|
|-7---7-7---7-7-7-|-3---3-3---3-3-3-|-5---5-5---5-5-5-|---5-5-5---5-5-5-|
|-5---5-5---5-5-5-|-1---1-1---1-1-1-|-3---3-3---3-3-3-|---3-3-3---3-3-3-|
|-----------------|-----------------|-----------------|-----------------|
| v ^ v ^ v ^ v ^ | v ^ v ^ v ^ v ^ | v ^ v ^ v ^ v ^ | v ^ v ^ v ^ v ^ |


Last Chorus:
|-----------------|-----------------|-1---1-1---1-1-1-|---1-1-1---1-1-1-|
|-6---6-6---6-6-6-|-5---5-5---5-5-5-|-1---1-1---1-1-1-|---1-1-1---1-1-1-|
|-7---7-7---7-7-7-|-5---5-5---5-5-5-|-2---2-2---2-2-2-|---2-2-2---2-2-2-|
|-7---7-7---7-7-7-|-5---5-5---5-5-5-|-3---3-3---3-3-3-|---3-3-3---3-3-3-|
|-5---5-5---5-5-5-|-3---3-3---3-3-3-|-3---3-3---3-3-3-|---3-3-3---3-3-3-|
|-----------------|-----------------|-1---1-1---1-1-1-|---1-1-1---1-1-1-|
| v ^ v ^ v ^ v ^ | v ^ v ^ v ^ v ^ | v ^ v ^ v ^ v ^ | v ^ v ^ v ^ v ^ |


|-----------------|-----------------|-----------------|-----------------|-----------------|
|-6---6-6---6-6-6-|-3---3-3---3-3-3-|---3-3-3---3-3-3-|-5---5-5---5-5-5-|---5-5-5---5-5-5-|
|-7---7-7---7-7-7-|-3---3-3---3-3-3-|---3-3-3---3-3-3-|-5---5-5---5-5-5-|---5-5-5---5-5-5-|
|-7---7-7---7-7-7-|-3---3-3---3-3-3-|---3-3-3---3-3-3-|-5---5-5---5-5-5-|---5-5-5---5-5-5-|
|-5---5-5---5-5-5-|-1---1-1---1-1-1-|---1-1-1---1-1-1-|-3---3-3---3-3-3-|---3-3-3---3-3-3-|
|-----------------|-----------------|-----------------|-----------------|-----------------|
| v ^ v ^ v ^ v ^ | v ^ v ^ v ^ v ^ | v ^ v ^ v ^ v ^ | v ^ v ^ v ^ v ^ | v 

Horn Part:
|-----------------|-----------------|-1---1-1---1-1-1-|---1-1-1---1-1-1-|
|-6---6-6---6-6-6-|-5---5-5-3---3-3-|-1---1-1---1-1-1-|---1-1-1---1-1-1-|
|-7---7-7---7-7-7-|-5---5-5-3---3-3-|-2---2-2---2-2-2-|---2-2-2---2-2-2-|
|-7---7-7---7-7-7-|-5---5-5-3---3-3-|-3---3-3---3-3-3-|---3-3-3---3-3-3-|
|-5---5-5---5-5-5-|-3---3-3-1---1-1-|-3---3-3---3-3-3-|---3-3-3---3-3-3-|
|-----------------|-----------------|-1---1-1---1-1-1-|---1-1-1---1-1-1-|
| v ^ v ^ v ^ v ^ | v ^ v ^ v ^ v ^ | v ^ v ^ v ^ v ^ | v ^ v ^ v ^ v ^ |
            
Submit corrections

comments powered by Disqus
↑ Back to top | Blind Pilot Tabs for I Buried A Bone. Lyrics for acoustic guitar and electric guitar. Tablatures and chords are parodies/interpretations of the original songs. You may use it for private study, scholarship, research or language learning purposes only