» » »

Blind Melon, Change Tabs (ver.1)

Artists:  A B C D E F G H I J K L M N O P Q R S T U V W X Y Z # 

Change Tabs (ver.1)

Blind Melon Tabs
Rating:
5/5 (6 votes)
Change lessons Tabs too difficult? Try these video lessons and learn fast
                -----------------------------------------------------------------
-----------------------------------------------------------------




Great song and really easy to play.  I think this is accurate.
For the verse, a lot of times he hammers on the first G chord, 
and even the A i think, so listen to the song to try and get
that. A lot of fun to sing and play this song.  Email me with any 
corrections or if you just want to talk about the awesomeness 
of Blind Melon.  enjoy.


Tuning: standard


verse
      A              G              D     G       A
e|----0-0--0-0-0-0---3-3--5-3-0-3---2-2---3-5-3---0-0-0-0-0-0-|
B|----2-2--3-2-0-2---0-0--0-0-0-0---3-3---3-3-3---2-2-3-2-0-2-|
G|----2-2--2-2-2-2---0-0--0-0-0-0---2-0h2-0-0-0---2-2-2-2-2-2-|
D|----2-2--2-2-2-2---0-0--0-0-0-0---0-0---0-0-0---2-2-2-2-2-2-|
A|----0-0--0-0-0-0---2-2--2-2-2-2---x-x---2-2-2---0-0-0-0-0-0-|
E|----0-0--0-0-0-0---3-3--3-3-3-3---x-x---3-3-3---0-0-0-0-0-0-|


chorus
                       repeat x 3                
e|----2h3p2-2---3-3---0-0-0-0-0-0--|----3---2---0-------------------|
B|----3-----3---3-3---2-2-3-2-0-2--|----3---3---2-------------------|
G|----2-----2---0-0---2-2-2-2-2-2--|----0---2---2-------------------|
D|----0-----0---0-0---2-2-2-2-2-2--|----0---0---2-------------------|
A|----x-----x---2-2---0-0-0-0-0-0--|----2---x---0-------------------|
E|----x-----x---3-3---0-0-0-0-0-0--|----3---x---0-------------------|



| /  slide up
| \  slide down
| h  hammer-on
| p  pull-off
| ~  vibrato
| +  harmonic
| x  Mute note
====================================================================
            
Submit corrections

comments powered by Disqus
↑ Back to top | Blind Melon Tabs for Change. Lyrics for acoustic guitar and electric guitar. Tablatures and chords are parodies/interpretations of the original songs. You may use it for private study, scholarship, research or language learning purposes only