» » »

Blind Faith, Well All Right Tabs (ver.1)

Artists:  A B C D E F G H I J K L M N O P Q R S T U V W X Y Z # 

Well All Right Tabs (ver.1)

Blind Faith Tabs
 Rating:
4/5 (4 votes)
Well All Right lessons Tabs too difficult? Try these video lessons and learn fast
                
standard tuning

intro
E--1--0-1-3--1-0--------------]
B----------------3--3-3-1---3-]
G-------------------------2---] 4x
D-----------------------------]
A-----------------------------]
E-----------------------------]

if you want to make it sound like a harmony play:
E--1--0-1-3--1-0------------]
B--1--0-1-3--1-0-3--3-3---3-]
G----------------2--2-2-2-2-] 4x
D-----------------------2---]
A---------------------------]
E---------------------------]
up to you

Feel free to syncopate the chords, im just putting them as quarter notes.

Verse (well alright...)
E--2--2--0--0-|-2--2--2--2-]
B--3--3--1--1-|-3--3--3--3-]
G--2--2--0--0-|-2--2--2--2-] 4x
D--0--0--2--2-|-0--0--0--0-]
A--------3--3-|------------]
E-------------|------------]

chorus (Well alright, well alright)
E--3--3--3--3-|--0--0--0--0-|--2--2--0--0-|--2--2--2--2-]
B--0--0--0--0-|--2--2--2--2-|--3--3--1--1-|--3--3--3--3-]
G--0--0--0--0-|--2--2--2--2-|--2--2--0--0-|--2--2--2--2-]
D--0--0--0--0-|--2--2--2--2-|--0--0--2--2-|--0--0--0--0-] 2x
A--2--2--2--2-|--0--0--0--0-|--------3--3-|-------------]
E--3--3--3--3-|--0--0--0--0-|-------------|-------------]

Keyboard interlude
E-x-x-2-x-x-2-x-x-0-x-x-0-|-x-x-2-x-x-2-x-x-2-x-x-2-]
B-x-x-3-x-x-3-x-x-1-x-x-1-|-x-x-3-x-x-3-x-x-3-x-x-3-]
G-x-x-2-x-x-2-x-x-0-x-x-0-|-x-x-2-x-x-2-x-x-2-x-x-2-] 4x
D-x-x-0-x-x-0-x-x-2-x-x-2-|-x-x-0-x-x-0-x-x-0-x-x-0-]
A-------------x-x-3-x-x-3-|-------------------------]
E-------------------------|-------------------------]

Verse
E--2--2--0--0-|-2--2--2--2-]
B--3--3--1--1-|-3--3--3--3-]
G--2--2--0--0-|-2--2--2--2-] 4x
D--0--0--2--2-|-0--0--0--0-]
A--------3--3-|------------]
E-------------|------------]

Keyboard interlude
E-x-x-2-x-x-2-x-x-0-x-x-0-|-x-x-2-x-x-2-x-x-2-x-x-2-]
B-x-x-3-x-x-3-x-x-1-x-x-1-|-x-x-3-x-x-3-x-x-3-x-x-3-]
G-x-x-2-x-x-2-x-x-0-x-x-0-|-x-x-2-x-x-2-x-x-2-x-x-2-] 4x
D-x-x-0-x-x-0-x-x-2-x-x-2-|-x-x-0-x-x-0-x-x-0-x-x-0-]
A-------------x-x-3-x-x-3-|-------------------------]
E-------------------------|-------------------------]

Verse
E--2--2--0--0-|-2--2--2--2-]
B--3--3--1--1-|-3--3--3--3-]
G--2--2--0--0-|-2--2--2--2-] 4x
D--0--0--2--2-|-0--0--0--0-]
A--------3--3-|------------]
E-------------|------------]

chorus (Well alright, well alright)
E--3--3--3--3-|--0--0--0--0-|--2--2--0--0-|--2--2--2--2-]
B--0--0--0--0-|--2--2--2--2-|--3--3--1--1-|--3--3--3--3-]
G--0--0--0--0-|--2--2--2--2-|--2--2--0--0-|--2--2--2--2-]
D--0--0--0--0-|--2--2--2--2-|--0--0--2--2-|--0--0--0--0-] 2x
A--2--2--2--2-|--0--0--0--0-|--------3--3-|-------------]
E--3--3--3--3-|--0--0--0--0-|-------------|-------------]

Keyboard interlude
E-x-x-2-x-x-2-x-x-0-x-x-0-|-x-x-2-x-x-2-x-x-2-x-x-2-]
B-x-x-3-x-x-3-x-x-1-x-x-1-|-x-x-3-x-x-3-x-x-3-x-x-3-]
G-x-x-2-x-x-2-x-x-0-x-x-0-|-x-x-2-x-x-2-x-x-2-x-x-2-] 4x
D-x-x-0-x-x-0-x-x-2-x-x-2-|-x-x-0-x-x-0-x-x-0-x-x-0-]
A-------------x-x-3-x-x-3-|-------------------------]
E-------------------------|-------------------------]

end on
E--2--0--0--2-]
B--3--2--1--3-]
G--2--2--0--2-]
D--0--2--2--0-]
A-----0--3----]
E-------------]

two measure silent then
E--1--0-1-3--1-0--------------]
B----------------3--3-3-1---3-]
G-------------------------2---] 4x
D-----------------------------]
A-----------------------------]
E-----------------------------]

keyboard solo
E-----1--1----|-----1--1----]
B-----3--3----|-----3--3----]
G-----2--2----|-----2--2----] repeat and fade
D--0--0--0----|--0--0--0----]
A-------------|-------------]
E-------------|-------------]
            
Submit corrections

comments powered by Disqus
↑ Back to top | Blind Faith Tabs for Well All Right. Lyrics for acoustic guitar and electric guitar. Tablatures and chords are parodies/interpretations of the original songs. You may use it for private study, scholarship, research or language learning purposes only