>
 >
Cant Find My Way Home

Cant Find My Way Home Guitar Tabs

Blind Faith - Cant Find My Way Home chords, tabs, tablatures, lyrics

Guitar lessons | Add/correct | Request | Top 50 tabs Artists:  A B C D E F G H I J K L M N O P Q R S T U V W X Y Z 0-9

Cant Find My Way Home Guitar Tabs – Blind Faith

CD, Sheet music, Poster

Do you like Cant Find My Way Home? Share with your friends now
ChordsChords v2Chords v3Chords v4TabsTabs v2
----------------------------------------------------------------

   BLIND FAITH - CAN'T FIND MY WAY HOME (S. Winwood) From BLIND
                 FAITH album. Released in August 1969. 69's # 1, 
                 Pop Album, both in US Billboard Chart and also 
                 in the UK.
 
----------------------------------------------------------------






   One album band, Blind Faith broke before the Press started
   messing too much with the fact that Eric Clapton and Ginger 
   Baker were together in another band, assuming that it might 
   be a Cream's sequel, which was not the case at all (Winwood 
   penned three of the six album's numbers, Clapton and Baker, 
   one each, plus a cover of Buddy Holly's "Well Allright",  
   also one of the album's strong tracks.

 
   
   


Come down off your throne
And leave your body alone
Somebody must change
You are the reason
I've been waiting so long
Somebody holds the key
Well, I'm near the end and just ain't got the time
Well, I'm wasted and I can't find my way home

Come down on your own
And leave your body alome
Somebody must change
You are the reason
I've been waiting all these years
Somebody holds the key
Well. I'm near the end and just ain't got the time
Oh, and I'm wasted and I can't find my way home

But I can't find my way home
But I can't find my way home
But I can't find my way home
But I can't find my way home
Still I can't find my way home
And I ain't done nothing wrong
But I can't find my way home





     Tune low E string to D




  INTRO

  D7sus4                          D6sus4                                 
e|------- ------- ------- -------|------- ------- ------- -------|
B|--------3-----------3----------|--------3-----------3----------|
G|------------0---------------0--|------------0---------------0--|
D|------------------------0------|------------------------0------|
A|3------------------------------|2------------------------------|
D|-------------------------------|-------------------------------|
  
e|------- ------- ------- -------|------- ------- 3-P-2-- -------|
B|----------------3--------------|------------------------3------|
G|----0-H-2----------------------|-------------------------------|
D|4------------------------------|-------------------------------|
A|-------------------------------|-------------------------------|
D|-------------------------------|-------------------------------|


  D+5sus4                         D5
e|------- ------- ------- -------|------- ------- ------- -------|
B|--------3-----------3----------|--------3-----------3----------|
G|------------0---------------0--|------------2-----------2---0--|
D|------------------------0------|-------------------------------|
A|1------------------------------|0------------------------------|
D|-------------------------------|-------------------------------|

e|------- ------- ------- -------|------- ------- ------- -------|
B|3---------------1--------------|-------------------------------|
G|--------------------3----------|2-------------------0---2------|
D|-------------------------------|----------------4--------------|
A|-------------------------------|-------------------------------|
D|-------------------------------|-------------------------------|


  F6                              G
e|------- 1------ ------- -------|------- ------- ------- -------|
B|------------1-------0----------|-------------------------------|
G|-------------------------------|0------------------------------|
D|------------------------0------|-------------------------------|
A|-------------------------------|----------------6-P-5---5-P-3--|
D|3------------------------------|5------------------------------|     

e|------- ------- ------- -------|------- ------- ------- -------|
B|1-P-0--------------------------|-------------------------------|
G|--------2----------------------|0------------------------------|
D|------------------------3------|----------------1-P-0----------|
A|-------------------------------|------------------------3------|
D|-------------------------------|-------------------------------|


  D
e|------- ------- ------- -------|------- ------- ------- -------|
B|--------3-----------3-------3--|------------3------------------|
G|------------2-----------2------|--------2-----------2----------|
D|0------------------------------|0------------------------------|
A|-------------------------------|------------------------0---2--|
D|-------------------------------|-------------------------------|

e|------- ------- ------- -------|------- ------- ------- -------|
B|-------------------------------|----------------------------3--|
G|-------------------------------|--------------------0---2------|
D|0-------------------0----------|0------------------------------|
A|------------0---3-------3------|-------------------------------|
D|-------------------------------|-------------------------------|


  00:11
e|------- ------- ------- -------|------- ------- ------- -------|
B|--------3-----------3----------|--------3-----------3----------|
G|------------0---------------0--|------------0---------------0--|
D|------------------------0------|------------------------0------|
A|3------------------------------|2------------------------------|
E|-------------------------------|-------------------------------|

e|------- 2------ ----3-- -------|3------ 2------ ------- -------|
B|-------------------------------|----------------3-H-5---3------|
G|-------------------------------|-------------------------------|
D|-------------------------------|-------------------------------|
A|-------------------------------|-------------------------------|
D|-------------------------------|-------------------------------|



e|------- ------- ------- -------|------- ------- 2------ -------|
B|--------3-----------3----------|----3---------------3----------|
G|------------0---------------0--|--------2---------------4---2--|
D|------------------------0------|------------0------------------|
A|1------------------------------|0------------------------------|
D|-------------------------------|-------------------------------|

e|------- 3-P-2-- 3---5-- ----2--|----3-P 2------ ------- -------|
B|-------------------------------|----------------5-P-3----------|
G|-------------------------------|------------------------2------|
D|-------------------------------|-------------------------------|
A|-------------------------------|-------------------------------|
D|-------------------------------|-------------------------------|



e|------- 1---1-- ----3-P 1------|------- ------- ------- -------|
B|----------------------------3--|0-----------0---------------0--|
G|-------------------------------|----2-P-0-----------2-P-0------|
D|-------------------------------|------------------------0------|
A|-------------------------------|----------------0-H-2----------|
D|3------------------------------|5------------------------------|

e|------- ------- ------- -------|------- ------- ------- -------|
B|--------------------0---1---0--|-------------------------------|
G|2------------------------------|----2-P-0-------0-H-2----------|
D|-------------------------------|------------------------3-B-4--|
A|-------------------------------|-------------------------------|
D|-------------------------------|-------------------------------|



e|------- 2------ ----3-- -------|2------ ----0-- ------- -------|
B|------------3-----------3------|----3---------------3----------|
G|----------------2-----------2--|--------2---------------2------|
D|0------------------------------|----------------0--------------|
A|-------------------------------|-------------------------------|
D|-------------------------------|-------------------------------|
                                                          Come
e|------- ------- ------- -------|------- ------- ------- -------|
B|-------------------------------|-------------------------------|
G|-------------------------------|-------------------------------|
D|0------------------------------|-------------------------------|
A|----------------3-P-0----------|-------------------------------|
D|------------------------3-P-0--|-------------------------------|



  00:22
e|------- ------- ------- -------|------- ------- ------- -------|
B|--------3-----------3----------|--------3-----------3----------|
G|------------0---------------0--|------------0---------------0--|
D|------------------------0------|------------------------0------|
A|3------------------------------|2------------------------------|
D|-------------------------------|-------------------------------|
  Down        of      your        throne                      and


e|------- ------- ------- -------|------- ------- ----2-- -------|
B|--------3-----------3----------|--------3-------------------1--|
G|------------0---------------0--|------------2-----------2------|
D|------------------------0------|-------------------------------|
A|1------------------------------|0------------------------------|
D|-------------------------------|-------------------------------|
  Leave   your    body    alone


e|------- 1------ ----1-- -------|------- ------- ------- -------|
B|------------1-----------1---0--|------------0------------------|
G|-------------------------------|--------0-----------0----------|
D|-------------------------------|-------------------------------|
A|-------------------------------|-------------------------------|
D|3------------------------------|5------------------------------| 
                  Somebody                            must  


e|------- ------- ------- -------|------- ------- ------- -------|
B|3-------------------3----------|3-------------------3----------|
G|------------2------------------|------------2-----------2------|
D|--------0-------------------0--|--------0----------------------|
A|------------------------3------|------------------------0-H-2--|
D|0---------------0--------------|0---------------0--------------|
  change


  00:33
e|------- ------- ------- -------|------- ------- ------- -------|
B|--------3-----------3----------|--------3-----------3----------|
G|------------0---------------0--|------------0---------------0--|
D|------------------------0------|------------------------0------|
A|3------------------------------|2------------------------------|
D|-------------------------------|-------------------------------|
          You are         the reason              I've    been 


e|------- ------- ------- -------|------- ------- ------- -------|
B|--------3-----------3----------|3-------------------3----------|
G|------------0---------------0--|------------2---------------2--|        
D|------------------------0------|--------0---------------0------|
A|1------------------------------|-------------------------------|
D|-------------------------------|0---------------0--------------|
  waiting             so          long


e|------- ------- ------- -------|------- ------- ------- -------|
B|------------1-------0----------|------------0---------------0--|
G|----------------------------0--|--------------------0----------|
D|--------0---------------0------|--------0---------------0------|
A|-------------------------------|-------------------------------|
D|3---------------3--------------|5---------------5--------------|      
                  Somebody                        holds   the key


e|------- ------- ------- -------|------- ------- ----2-- -------|
B|3-------------------3----------|3------------------------------|
G|------------2------------------|------------2------------------|
D|--------0-------------------0--|0-------0---------------0------|      
A|------------------------3------|-------------------------------|
D|0---------------0--------------|----------------0--------------|
                                                  Well,  
                                                      I'm

  00:44
  G
e|------- ------- ----3-- -------|------- 3------ ------- -------|
B|3-----------3------------------|3-----------3-------3----------|
G|--------0----------------------|-------------------------------|
D|------------------------0------|--------0---------------0------|      
A|-------------------------------|-------------------------------|
D|5---------------5--------------|5----------------5-------------|
          near            the end                     and  



  A           Asus4               A           A6      A
e|------- ------- ------- -------|------- ----2-- ----0-- -------|
B|--------2-H-3-------3----------|2-----------2-------2----------|
G|--------2-----------2----------|2------------------------------|
D|--------2---------------2------|--------2---------------2------|
A|0---------------0--------------|0---------------0--------------|
D|-------------------------------|-------------------------------|
          just       ain't        got                     the time



          D               Dsus4       D           Dsus2   D                     
e|------- 2------ ------- 3------|----2-- ------- 0------ -------|
B|--------3---------------3------|----3-----------3-------3------|
G|--------2---------------2------|----2-----------2--------------|
D|0---------------0--------------|0------------------------------|
A|-------------------------------|-------------------------------|
D|-------------------------------|-------------------------------|
                                                  



  Em7                 Emadd4      Em7         Em6         Em          
e|------- 3------ ----5-- -------|3------ ----2-- ------- 0------|
B|------------0-----------0------|----0-------0-----------0------|
G|----------------0-----------0--|--------0---0-----------0------|
D|-------------------------------|-------------------------------|
A|-------------------------------|-------------------------------|
D|2------------------------------|2---------------2--------------|
          Well,               wasted                  and     I                  
              I'm   


  G                               F#8             E
e|------- ------- ------- 3------|2------ 2------ 0------ 0------|
B|--------------------3----------|-------------------------------|
G|------------0------------------|-------------------------------|
D|--------0----------------------|-------------------------------|
A|-------------------------------|-------------------------------|
D|5---------------5--------------|4-------4-------2-------2------|
          can't       find        my              way     home



  D                   Dsus2       D
e|------- ------- ----0-- -------|------- ------- ------- -------|
B|3-----------3------------------|3------------------------------|
G|--------2----------------------|------------2-------0----------|
D|------------------------0------|--------0---------------4------|
A|-------------------------------|-------------------------------|
D|0---------------0--------------|0------------------------------|




  01:01
e|------- ------- ------- -------|------- ------- ------- -------|
B|--------------------0---1------|0------------------------------|
G|2------------------------------|--------------------2-P-0------|
D|-------------------------------|-------------------------------|
A|-------------------------------|-------------------------------|
D|-------------------------------|-------------------------------|


e|------- ------- ------- -------|------- ------- ------- -------|
B|3-------------------1----------|-------------------------------|
G|------------------------3------|2-------------------0---2------|
D|-------------------------------|----------------4--------------|
A|-------------------------------|-------------------------------|
D|-------------------------------|-------------------------------|


e|------- ------- 5-P-3-- ----1--|3------ ----1-- ----0-- -------|
B|3------------------------------|--------3----------------------|
G|-------------------------------|-------------------------------|  
D|-------------------------------|-------------------------------|
A|-------------------------------|-------------------------------|
D|-------------------------------|-------------------------------|


e|------- ------- ------- -------|------- ------- ------- -------|
B|----1--------------------------|-------------------------------|
G|----------------2--------------|-------------------------------|
D|------------------------3------|0------------------------------|
A|-------------------------------|-------------------------------|
D|-------------------------------|-------------------------------|



     01:12 
     Dooooooooodooooooooooohhhh

     01:22
     Come down on your own
     And leave your body alome
     Somebody must change
     You are the reason
     I've been waiting all these years
     Somebody holds the key
     Well. I'm near the end and just ain't got the time
     Oh, and I'm wasted and I can't find my way home



  01:58
e|------- ------- ----0-- -------|2------ ----3-- ----5-- -------|
B|------------3------------------|-------------------------------|
G|--------2----------------------|-------------------------------|
D|-------------------------------|-------------------------------|
A|-------------------------------|-------------------------------|
D|0------------------------------|-------------------------------|

  02:01
e|8------ ------- ------- -------|7-P-5-\ 3------ ------- -------|
B|-------------------------------|--------------------3----------|
G|-------------------------------|-------------------------------|
D|-------------------------------|-------------------------------|
A|-------------------------------|-------------------------------|
D|-------------------------------|-------------------------------|


e|------- ------- ------- -------|------- ------- ------- -------|
B|6-------------------5-P-3------|-------------------------------|
G|-------------------------------|2---------------2-P-0----------|
D|-------------------------------|------------------------4------|
A|-------------------------------|-------------------------------|
D|-------------------------------|-------------------------------|


e|------- ------- ------- -------|------- ------- ------- -------|
B|-------------------------------|-------------------------------|
G|2------------------------------|0------------------------------|
D|--------------------5-H-3------|----------------3-P-2-P-0------|
A|-------------------------------|----------------------------3--|
D|-------------------------------|-------------------------------|


e|------- ------- ------- -------|------- ------- ------- -------|
B|-------------------------------|-------------------------------|
G|-------------------------------|-------------------------------|
D|0------------------------------|-------------------------------|
A|-------------------------------|-------------------------------|
D|-------------------------------|-------------------------------|



  02:12
  Dooooooooodooooooooooohhhh
 
  02:16
  But I can't find my way home
  But I can't find my way home
  But I can't find my way home
  But I can't find my way home
  Still I can't find my way home
  And I ain't done nothing wrong
  But I can't find my way home


                                         (.
  03:08
  D                       D6      D
e|------- ------- ------- -------|------- ------- ------- -------|
B|--------3----------------------|-------------------------------|
G|------------2------------------|-------------------------------|
D|--------------------0----------|0------------------------------|
A|------------------------2------|-------------------------------|
D|0------------------------------|--------0----------------------|








        B  Bend
        R  Release
        /  Slide up
        \  Slide down
        H  Hammer-on
        P  Pull-off
        ~  Vibrato
        +  Harmonic
        x  Mute note
        .  Play note like a dot in standard notation
        ^  Ties two notes together
        (. Pause





Comments


Popular Blind Faith tabs & chords
Can Find My Way Home Bass Tabs
Cant Find My Way Home Chords
Cant Find My Way Home 2 Chords
In The Presence Of The Lord Chords
In The Presence Of The Lord 1 Chords
Sea Of Joy Chords
Had To Cry Today 2 Tabs
Had To Cry Today Ukulele
Sea Of Joy Ukulele
Well All Right Ukulele


Song lyrics



↑ Back to top | Tablatures and chords are parodies/interpretations of the original songs. You may use it for private study, scholarship, research or language learning purposes only
© 2014 AZChords.com Contact us | Privacy policy | DMCA | Add/correct tabs | Request tabs | Top 50 tabs