» » »

Can Find My Way Home Bass tabs (ver.1)

Artists:  A B C D E F G H I J K L M N O P Q R S T U V W X Y Z # 

Can Find My Way Home Bass tabs (ver.1)

Blind Faith
Rating:
0/5 (0 votes)

Hard to play? Try these video lessons and learn fast.
                Verse x2
G--------------------------------------------|
D-10---9----8----7-----------------------7h8h|
A---------------------8----10----------------|
E-------------------------------10-----------|

G--------------------------------------------|
D-10---9----8----7-------------------------7-|
A---------------------8----10----------------|
E-------------------------------10------10---|

Chorus
G------------------------------------|
D------------------------------------|
A-14---12-------------10--9----------|
E-----------10---12----------12-10---|

Verse x2

Chorus

Verse x2 1/2

End x3
G-------------------|
D-------------------|
A-8----10-----------|
E-----------10------|
            
Hard to play? Try these video lessons and learn fast. | Correct




comments powered by Disqus
↑ Back to top | Tablatures and chords are parodies/interpretations of the original songs. You may use it for private study, scholarship, research or language learning purposes only