» » »

Somebody Else Bass tabs (ver.1)

Artists:  A B C D E F G H I J K L M N O P Q R S T U V W X Y Z # 

Somebody Else Bass tabs (ver.1)

Bleu
Rating:
0/5 (0 votes)

Hard to play? Try these video lessons and learn fast.
                G|-------------------------------------------------------------- |
D|--------4/11--11--11--10-------------------------------------- |
A|--4-4-4-------------------11---9---11-11-11------------------- | |--> Intro
E|-------------------------------------------------------------- |
								
G|-------------------------------------------------------------- |
D|--------4/11--11--11--10-------------------------------------- |
A|--4-4-4-------------------11---9-9---------------------------- | |--> Intro 2
E|-------------------------------------------------------------- |


G|------------------------------|
D|------------------------------|--> x4
A|------------------------------|
E|---2---2-2----4---0-4-4-------|


G|------------------------------|
D|------------------------------|
A|--------------4/8-------------|
E|---2>>--4>>-------------------|

G|--------------------------------------------------------------
D|--------------------------------------------------------------  <--- This is
A|--4-4-4-4-4-3-----------1-1-1-1---6-6-6-6-4-8-8-8-8-6-9-9-9--- Incorrect but is a 
E|--------------2-2-2-2-3---------3----------------------------- alternative
            
Hard to play? Try these video lessons and learn fast. | Correct




comments powered by Disqus
↑ Back to top | Tablatures and chords are parodies/interpretations of the original songs. You may use it for private study, scholarship, research or language learning purposes only