» » »

Stay Still Tabs (ver.2)

Artists:  A B C D E F G H I J K L M N O P Q R S T U V W X Y Z # 

Stay Still Tabs (ver.2)

Blessthefall
Rating:
0/5 (0 votes)

Hard to play? Try these video lessons and learn fast.
                Artist - BlesstheFall
Song - Stay still
Album - Witness
Profile - horizonaflame

So I tabbed this whole song since everyone else was too lazy, so tell me  what you think 
and please rate (this is so more people see it!) um, yea, uh, eNjOy

Drop D tuning

Here is guitar 1's part:

Intro pt. 1 (finger picking, 4 times!) -

e|----------------------|---------------------|
B|----6~------10~--3~---|---6~------5~---3~---|
G|----------------------|---------------------|
D|----------------------|---------------------|
A|----5~------8~---1~---|---5~------3~---1~---|
D|----------------------|---------------------|

Intro pt. 2 (let ring until the chorus comes in!)

e|----------------------|---------------------------------|
B|----6~------5~---3~---|----6~------5~---3~--------------|
G|----------------------|---------------------------------|
D|----------------------|---------------------------------|
A|----5~------3~---1~---|----5~------3~---1~--------------|
D|----------------------|---------------------------------|

Chorus pt. 1
e|-----------------------------------------------|---------|
B|-----------------------------------------------|---------|
G|-----------------------------------------------|---------|
D|-0----0-0----00000----0-0----00008----8-8-8888-|-0h7h8p0-|
A|-0----0-0----00000----0-0----00008x---8-8-8888-|---------|
D|-0----0-0----00000----0-0----00008x---8-8-8888-|---------|

Chorus pt. 2

e|-------------------------------------------|-------------------|
B|-------------------------------------------|-------------------|
G|-------------------------------------------|-------------------|
D|-0-00000x-00000x-00000x-00008x-88888x-8888-|-5~-5~-5~-5~-5x-5x-|
A|-0-00000x-00000x-00000x-00008x-88888x-8888-|-5~-5~-5~-5~-5x-5x-|
D|-0-00000x-00000x-00000x-00008x-88888x-8888-|-5~-5~-5~-5~-5x-5x-|

Verse 2 (this is played softly)

e|-----------------|-----------------|-----------------|
B|-----------------|-----------------|-----------------|
G|-----------------|-----------------|-----------------|
D|-(this-2-times)--|-(this-2-times)--|-(this-4-times)--|
A|-5-5-5-5-5-5-5-5-|-8-8-8-8-8-8-8-8-|-1-1-1-1-1-1-1-1-|
D|-----------------|-----------------|-----------------|

Verse 2 cont. (a little louder now)

e|-----------------|-----------------|-----------------|-----------------|
B|-----------------|-----------------|-----------------|-(this-2-times)--|
G|-----------------|-----------------|-----------------|-----------------|
D|-(this-2-times)--|-(this-2-times)--|-(this-2-times)--|-8-8-8-8-8-8-8-8-|
A|-5-5-5-5-5-5-5-5-|-8-8-8-8-8-8-8-8-|-1-1-1-1-1-1-1-1-|-8-8-8-8-8-8-8-8-|
D|-----------------|-----------------|-----------------|-8-8-8-8-8-8-8-8-|

Chorus Parts 1 and 2 again now

Breakdown pt. 1

e|--------------------------------------|
B|-(this-3 times)-------|--(this-once)--|
G|----------------------|---------------|
D|----------------------|---------------|
A|-0x-0x--0x--0---0000x-|-0x-0x--0x-0x--|
D|-0x-0x--0x--0x--0000x-|-0x-0x--0x-0x--|

Breakdown pt. 2

e|---------------------|------------------------------------------|
B|----(this-3-times)---|------------------------------------------|
G|---------------------|------------------------------------------|
D|-0x-0x--0x-0x--0000x-|-0x-0x--0x-0x--8-8-8-8-8-8-8-8-8-8-8-8-8\-|
A|-0x-0x--0x-0x--0000x-|-0x-0x--0x-0x--8-8-8-8-8-8-8-8-8-8-8-8-8\-|
D|-0x-0x--0x-0x--0000x-|-0x-0x--0x-0x--8-8-8-8-8-8-8-8-8-8-8-8-8\-|

*chorus parts one and two again*

Alt-Chorus

e|----------------------------------------------------------------|
B|----------------------------------------------------------------|
G|----------------------------------------------------------------|
D|----------------------------------------------------------------|
A|-0~----0-0~--0~--0-0~--0~--8~----8-8~--8~--0x-12\-0x-12\-0x-12\-|
D|-0~----0-0~--0~--0-0~--0~--8~----8-8~--8~--0x-12\-0x-12\-0x-12\-|

Alt-Chorus pt. 2

e|------------------------------------------------------------|
B|------------------------------------------------------------|
G|------------------------------------------------------------|
D|------------------------------------------------------------|
A|-0~----0-0~--0~--0-0~--0~--8~----8-8~--8~--5x-5x-5x-5x-5x5x-|
D|-0~----0-0~--0~--0-0~--0~--8~----8-8~--8~--5x-5x-5x-5x-5x5x-|

Outro (this part 4 times)       (this part twice)

e|-----------------------------|---------------|
B|-6~----5~--3~--6~----10~-3~--|-6~----5~--1~--|
G|-----------------------------|---------------|
D|-----------------------------|---------------|
A|-5~----3~--1~--5~----8~--1~--|-5~----3~--1~--|
D|-----------------------------|---------------|


Guitar 2:

Intro: nothing is played here but you can play with guitar one ^

Verse pt. 1 (4 times)

e|--------------|--------------|--------------|
B|--------------|--------------|--------------|
G|--------------|--------------|--------------|
D|-12-(8-times)-|-10-(8-times)-|-8-(16-times)-|
A|--------------|--------------|--------------|
D|--------------|--------------|--------------|

e|-----------------------------------------------|
B|-----------------------------------------------|
G|-7~--------------------------------------------|
D|---------------8-8-8-8-8-8-8-8-8-8-8-8-8-8-8-8-|
A|---------------8-8-8-8-8-8-8-8-8-8-8-8-8-8-8-8-|
D|---------------8-8-8-8-8-8-8-8-8-8-8-8-8-8-8-8-|

Chorus pt. 1
e|-----------------------------------------------|------------------|
B|-----------------------------------------------|------------------|
G|-----------------------------------------------|------------------|
D|-0----0-0----00000----0-0----00008----8-8-8888-|-5555----5555x----|
A|-0----0-0----00000----0-0----00008x---8-8-8888-|-5555----5555x----|
D|-0----0-0----00000----0-0----00008x---8-8-8888-|-5555----5555x----|

Chorus pt. 2

e|-------------------------------------------|-------------------|
B|-------------------------------------------|-------------------|
G|-------------------------------------------|-------------------|
D|-0-00000x-00000x-00000x-00008x-88888x-8888-|-5~-5~-5~-5~-5x-5x-|
A|-0-00000x-00000x-00000x-00008x-88888x-8888-|-5~-5~-5~-5~-5x-5x-|
D|-0-00000x-00000x-00000x-00008x-88888x-8888-|-5~-5~-5~-5~-5x-5x-|


Verse 2 this can be the same as the guitar part but i like to make harmony with this 
part, i just think it soounds better but you can choose

e|--------------|---------------|--------------|
B|--------------|---------------|--------------|
G|--------------|---------------|--------------|
D|--------------|---------------|--------------|
A|-8-(16-times)-|-12-(16-times)-|-5-(32-times)-|
D|--------------|---------------|--------------|

Verse 2 cont.

e|--------------|---------------|--------------|---------------|
B|--------------|---------------|--------------|---------------|
G|--------------|---------------|--------------|-(this-twice)--|
D|--------------|---------------|--------------|---------------|
A|-8-(16-times)-|-12-(16-times)-|-5-(16-times)-|-8-8-8-8-8-8-8-|
D|--------------|---------------|--------------|---------------|

Chorus parts 1 and 2 again here

Breakdown pt. 1

e|--------------------------------------|
B|-(this-3 times)-------|--(this-once)--|
G|----------------------|---------------|
D|----------------------|---------------|
A|-0x-0x--0x--0---0000x-|-0x-0x--0x-0x--|
D|-0x-0x--0x--0x--0000x-|-0x-0x--0x-0x--|

Breakdown pt. 2 (this 4 times) (i know this is wrong but it sounds okay to me, so 
you can try to figure it out if you want)

e|----------------|----------------|
B|----------------|----------------|
G|-------7h9p7----|------7h10p7----|
D|----------------|----------------|
A|----------------|----------------|
D|-0x-0x----------|-0x-0x----------|

Chorus parts one and two yet again, lol

Alt-Chorus

e|----------------------------------------------------------------|
B|----------------------------------------------------------------|
G|----------------------------------------------------------------|
D|----------------------------------------------------------------|
A|-0~----0-0~--0~--0-0~--0~--8~----8-8~--8~--0x-12\-0x-12\-0x-12\-|
D|-0~----0-0~--0~--0-0~--0~--8~----8-8~--8~--0x-12\-0x-12\-0x-12\-|

Alt-Chorus pt. 2

e|------------------------------------------------------------|
B|------------------------------------------------------------|
G|------------------------------------------------------------|
D|------------------------------------------------------------|
A|-0~----0-0~--0~--0-0~--0~--8~----8-8~--8~--5x-5x-5x-5x-5x5x-|
D|-0~----0-0~--0~--0-0~--0~--8~----8-8~--8~--5x-5x-5x-5x-5x5x-|

Outro (this part 4 times)       (this part twice)

e|-----------------------------|---------------|
B|-6~----5~--3~--6~----10~-3~--|-6~----5~--1~--|
G|-----------------------------|---------------|
D|-----------------------------|---------------|
A|-5~----3~--1~--5~----8~--1~--|-5~----3~--1~--|
D|-----------------------------|---------------|


So there it is, took almost 3 hours to tab, so don't hate unless it is absolutely 
terrible (So I expect NO hating, lol)

-Nick Orvik
            
Hard to play? Try these video lessons and learn fast. | Correct




comments powered by Disqus
↑ Back to top | Tablatures and chords are parodies/interpretations of the original songs. You may use it for private study, scholarship, research or language learning purposes only