» » »

Stay Still Bass tabs (ver.1)

Artists:  A B C D E F G H I J K L M N O P Q R S T U V W X Y Z # 

Stay Still Bass tabs (ver.1)

Blessthefall
Rating:
0/5 (0 votes)

Hard to play? Try these video lessons and learn fast.
                Artist - BlesstheFall
Song - Stay Still
Album - Witness

Profile - horizonaflame

This is a great song, so here lies the bass tab for it

This is in Drop D so its from low to high : DADG

Intro: nothing is played until verse one when the vocals come in

Verse 1 

G|-----------------------|-7~------------|---------------------------------|
D|--(this-4-times)-------|---------------|---------------------------------|
A|-----------------------|---------------|---------------------------------|
D|-0~----8~----0~--------|---------------|-8-8-8-8-8-8-8-8-8-8-8-8-8-8-8-8-|

Chorus 

G|----------------------------------------------------------------------|
D|----------------------------------------------------------------------|
A|----------------------------------------------------------------------|
D|-0~----0-0~----00000000-0~----0-0~----00000000-8~----8-8~----88888888-|

(you can play this with Gtr.)  (or what's really played)

G|-------------------------|-----------------------------|
D|-0h7h8p0h7h8p0h7h7p0h7h8-|-----------------------------|
A|-------------------------|-----------------------------|
D|-------------------------|-5555x-5555x---5555x-5555x---|

G|----------------------------------------------------------------------|
D|----------------------------------------------------------------------|
A|----------------------------------------------------------------------|
D|-0~----0-0~----00000000-0~----0-0~----00000000-8~----8-8~----88888888-|

G|-----------------|
D|-----------------|
A|-----------------|
D|-5--5--5--5--5-5-|

Verse 2 "So when, does it start getting better?..." (x 2)

G|----------|----------|---------|
D|----------|----------|---------|
A|----------|----------|---------|
D|-12-(x16)-|-10-(x16)-|-8-(x32)-|

Chorus again 

Breakdown  

G|-----------------|-----------|
D|-(this-3-times)--|-----------|
A|-----------------|-----------|
D|-00x-0x-0x-0000x-|-00x-0x-0x-|

G|-----------------|------------------------------------------|
D|-(this-3-times)--|------------------------------------------|
A|-----------------|------------------------------------------|
D|-00x--00x--0000x-|-00x--00x--8-8-8-8-8-8-8-8-8-8-8-8-8\\\\\-|

Chorus Again 

Alt-Chorus

G|----------------------------------------------------------------|
D|----------------------------------------------------------------|
A|----------------------------------------------------------------|
D|-0~----0-0~------0~----0-0~------8~----8-8~-----5--5--5--5--5-5-|

Ends on: 

G|-------------------------|---------------|
D|-----(this-4-times-)-----|--(this-twice)-|
A|-------------------------|---------------|
D|-12~----10~----8~--------|-0~------------|

So there it is, please rate and comment. thanks :]

-Nick
            
Hard to play? Try these video lessons and learn fast. | Correct




comments powered by Disqus
↑ Back to top | Tablatures and chords are parodies/interpretations of the original songs. You may use it for private study, scholarship, research or language learning purposes only