» » »

Blessthefall, Rise Up Bass tabs (ver.1)

Artists:  A B C D E F G H I J K L M N O P Q R S T U V W X Y Z # 

Rise Up Bass tabs (ver.1)

Blessthefall Tabs
 Rating:
4/5 (4 votes)
Rise Up lessons Tabs too difficult? Try these video lessons and learn fast
                                        ________________________
                        |______________________|



Tuning: Drop D

Key:
~~~~~ = Let the note ring

Intro (Guitars at first)
G|------------------------|
D|------------------------|
A|------------------------|
D|0-0-0-0-0-0-0-0-0-0-0-0-|

(Keep your eyes focused this time / Keep us in front of your sights)
G|-------------------------------------------|
D|-------------------------------------------|
A|-------------------------------------------|
D|0-0-0--0-0-0-0-0-0-5-5-5-5-5-5-5-5-5-5-5-5-|

(I've waited long for this, now it's our time for bliss)
G|------------------------------------------------|
D|------------------------------------------------|
A|------------------------------------------------|
D|8-8-8-8-8-8-8-8-8-8-8-8-3-3-3-3-3-3-5-5-5-5-5-5-|

(I stand broken, please God hear my...)
G|-------------------------------------------|
D|-------------------------------------------|
A|-------------------------------------------|
D|0-0-0--0-0-0-0-0-0-5-5-5-5-5-5-5-5-5-5-5-5-|

(Cries / He does every time)
G|------------------------------------------------|
D|------------------------------------------------|
A|------------------------------------------------|
D|8-8-8-8-8-8-8-8-8-8-8-8-3-3-3-3-3-3-5-5-5-5-5-5-|

(How many times have you watched me fall, just to smile)
G|------------------------------------------------|
D|------------------------------------------------|
A|------------------1-1-1-------------------------|
D|0-0-0-0-0-0-0-0-0-------3-3-3-3-3-3-3-3-3-3-3-3-|

(I've been through thick and thin, we've struggled through / Now we smile)
G|------------------------------------------------|
D|------------------------------------------------|
A|------------------1-1-1-------------------------|
D|0-0-0-0-0-0-0-0-0-------3-3-3-3-3-3-3-3-3-3-3-3-|

(So we're here now, just be ready)
G|------------------------------------------------|
D|------------------------------------------------|
A|------------------1-1-1-------------------------|
D|0-0-0-0-0-0-0-0-0-------3-3-3-3-3-3-3-3-3-3-3-3-|

(Brace yourselves 'cause we're not leaving)
G|-------------------------------------------|
D|-------------------------------------------|
A|------------------1-1-1--------------------|
D|0-0-0-0-0-0-0-0-0-------3-3-3-3-3-3-3~~~~~-|

(Keep your eyes focused this time / Keep us in front of your sights)
G|-------------------------------------------|
D|-------------------------------------------|
A|-------------------------------------------|
D|0-0-0--0-0-0-0-0-0-5-5-5-5-5-5-5-5-5-5-5-5-|

(I've waited long for this, our time to shine, I just hope we have the time)
G|------------------------------------------------|
D|------------------------------------------------|
A|------------------------------------------------|
D|8-8-8-8-8-8-8-8-8-8-8-8-3-3-3-3-3-3-5-5-5-5-5-5-|

(I stand broken, please God hear my...)
G|-------------------------------------------|
D|-------------------------------------------|
A|-------------------------------------------|
D|0-0-0--0-0-0-0-0-0-5-5-5-5-5-5-5-5-5-5-5-5-|

(Cries / He does every time)
G|------------------------------------------------|
D|------------------------------------------------|
A|------------------------------------------------|
D|8-8-8-8-8-8-8-8-8-8-8-8-3-3-3-3-3-3-5-5-5-5-5-5-|

(Help us get out, Help us get out / Out into the open)
G|--------------------------------------|
D|--------------------------------------|
A|--------------------------------------|
D|0-0-0-00-000-0-0-3-0-0-0-00-000-0-0-3-|

(Help us grow / Raise up, raise up)
G|------------------------------------------|
D|------------------------------------------|
A|------------------------------------------|
D|0-0~~--0-0~~--0-0-0-000-000-0-0-0-000-000-|

(Help us grow / Raise up, raise up)
G|----------------------------------------|
D|----------------------------------------|
A|----------------------------------------|
D|0-0~~--0~~--0-0-0-000-000-0-0-0-000-000-|

(Help us grow / Raise up, raise up)
G|------------------------------------------|
D|------------------------------------------|
A|------------------------------------------|
D|0-0~~--0-0~~--0-0-0-000-000-0-0-0-000-000-|

(Help us grow / Raise up, raise up)
G|-----------------------------------|
D|-----------------------------------|
A|-----------------------------------|
D|0-0~~--0~~--0-0-0-000-000-0-0-0--0-|

G|-----------------------------------------------------------------|
D|-----------------------------------------------------------------|
A|-------1~--------------------------------------------------------|
D|0~~~~~----0~~~~~-0-0-00--0-0-00--0-0-00--0-0-0-0-0-0-0-0-0-0-0-0-|

(I stand broken, please God hear my...)
G|------------------------------------------------|
D|------------------------------------------------|
A|------------------------------------------------|
D|0-0-0-0-0-0-0-0-0-0-0-0-5-5-5-5-5-5-5-5-5-5-5-5-|

(Cries / He does every time)
G|------------------------------------------------|
D|------------------------------------------------|
A|------------------------------------------------|
D|3-3-3-3-3-3-3-3-3-3-3-3-5-5-5-5-5-5-8-8-8-8-8-8-|

(I stand broken, please God hear my...)
G|------------------------------------------------|
D|------------------------------------------------|
A|------------------------------------------------|
D|0-0-0-0-0-0-0-0-0-0-0-0-5-5-5-5-5-5-5-5-5-5-5-5-|

(Cries / He does every time)
G|------------------------------------------------|
D|------------------------------------------------|
A|------------------------------------------------|
D|3-3-3-3-3-3-3-3-3-3-3-3-5-5-5-5-5-5-8-8-8-8-8-8-|

(Time...)
G|------------------------------------------------|
D|------------------------------------------------|
A|------------------------1-1-1-1-1-1-1-1-1-1-1-1-|
D|0-0-0-0-0-0-0-0-0-0-0-0-------------------------|

G|------------------------------------------------|
D|------------------------------------------------|
A|------------------------1-1-1-1-1-1-1-1-1-1-1-1-|
D|3-3-3-3-3-3-3-3-3-3-3-3-------------------------|

(Keep your eyes focused this time / Keep us in front of your sights)
G|-------------------------------------------|
D|-------------------------------------------|
A|-------------------------------------------|
D|0-0-0--0-0-0-0-0-0-5-5-5-5-5-5-5-5-5-5-5-5-|

(I've waited long for this, now it's our time for bliss)
G|------------------------------------------------|
D|------------------------------------------------|
A|------------------------------------------------|
D|8-8-8-8-8-8-8-8-8-8-8-8-3-3-3-3-3-3-5-5-5-5-5-5-|

(I stand broken, please God hear my...)
G|-------------------------------------------|
D|-------------------------------------------|
A|-------------------------------------------|
D|0-0-0--0-0-0-0-0-0-5-5-5-5-5-5-5-5-5-5-5-5-|

(Cries / He does every time)
G|-------------------------------------------------------|
D|-------------------------------------------------------|
A|-------------------------------------------------------|
D|8-8-8-8-8-8-8-8-8-8-8-8-3-3-3-3-3-3-5-5-5-5-5-5-0~~~~~-|
            
Submit corrections

comments powered by Disqus
↑ Back to top | Blessthefall Bass for Rise Up. Lyrics for acoustic guitar and electric guitar. Tablatures and chords are parodies/interpretations of the original songs. You may use it for private study, scholarship, research or language learning purposes only