>
 >
Rise Up

Rise Up Guitar Tabs

Blessthefall - Rise Up chords, tabs, tablatures, lyrics

Guitar lessons | Add/correct | Request | Top 50 tabs Artists:  A B C D E F G H I J K L M N O P Q R S T U V W X Y Z 0-9

Rise Up Guitar Tabs – Blessthefall

CD, Sheet music, Poster

Do you like Rise Up? Share with your friends now
Bass TabsBass Tabs v2ChordsChords v2Chords v3TabsTabs v2Tabs v3Tabs v4UkuleleUkulele v2
Blessthefall

Rise Up is my first tab, so please comment.

	*Note: For a more complicated/advanced tab, see my other version.


R = Rest

/ = Slide Up
\ = Slide down
* = Palm Mute
h = hammer on
p = pull off





Guitar 1:  (Right Channel of audio)

Intro:  Play this 4x

e|-13----------------|-------------------|
B|----13-13-10-------|-------13-10-11-10-|
G|-------------12-10-|-14-10-------------|
D|-------------------|-------------------|
A|-------------------|-------------------|
D|-------------------|-------------------|

__________________________________________________________
	Chorus (Keep your eyes open):   (Play it twice)

e|--------|-------------------|-------------------|-------------------|
B|--------|-------------------|-------------------|-------------------|
G|--------|/10-10-10-10-10-10-|-10-10-10-10-10-10-|-10-10-10-10-10-10-|
D|-0------|-------------------|-------------------|-------------------|
A|-0--0-0-|/8--8--8--8--8--8--|-8--8--8--8--8--8--|-8--8--8--8--8--8--|
D|-0--0-0-|-------------------|-------------------|-------------------|

e|-------------|--------------|-------------|--------------|
B|-------------|--------------|-------------|--------------|
G|-------------|--------------|-------------|--------------|
D|-0-3-5-7-5-3-|--------------|-0-3-5-7-5-3-|--------------|
A|-------------|-10-0-7-0-8-0-|-------------|-10-0-7-0-8-0-|
D|-------------|--------------|-------------|--------------|

e|-------------|-------------|-------------|-------------|
B|-------------|-------------|-------------|-------------|
G|-------------|-------------|-------------|-------------|
D|-------------|-------------|-------------|-------------|
A|-8-8-8-8-8-8-|-8-8-8-8-8-8-|-8-8-8-8-8-8-|-8-8-8-8-8-8-|
D|-8-8-8-8-8-8-|-8-8-8-8-8-8-|-8-8-8-8-8-8-|-8-8-8-8-8-8-|

e|-------------|-------------|-------------|-------------|
B|-------------|-------------|-------------|-------------|
G|-------5-----|-------------|-------3-----|-------------|
D|-3/5-8---8-7-|-8-0-5-0-7-0-|-3-5-7---7-5-|-7--3-0-3-0--|
A|-------------|-------------|-------------|-------------|
D|-------------|-------------|-------------|-------------|

____________________________________________
	Verse 1 (Palm Muted part)

Riff A:
e|-------------------|-------------------|-------------------|-------------------|
B|-------------------|-------------------|-------------------|-------------------|
G|-10-10-10-10-10-10-|-10-10-10-10-10-10-|-10-10-10-10-10-10-|-10-12-12-12-12-12-|
D|-------------------|-------------------|-------------------|-------------------|
A|-------------------|-------------------|-------------------|-------------------|
D|-------------------|-------------------|-------------------|-------------------|
   *  *  *  *  *  *    *  *  *  *  *  *    *  *  *  *  *  *    *  
_ _ _ _ _ _ _ _ _ _ _ _

*Play Riff A, then:

e|-------------------|-------------------|-------------------|-------------------|
B|-------------------|-------------------|-------------------|-------------------|
G|-10-10-10-10-10-10-|-10-10-10-10-10-10-|-10-10-10-10-10-10-|-10-10-10-10-10-10-|
D|-------------------|-------------------|-------------------|-------------------|
A|-------------------|-------------------|-------------------|-------------------|
D|-------------------|-------------------|-------------------|-------------------|
   *  *  *  *  *  *    *  *  *  *  *  *    *  *  *  *  *  *    *  *  *  *  *  

*Play Riff A, then:

e|-------------------|-------------------|-------------------|-------------------|
B|-------------------|-------------------|-11-------11-11----|-11----11----11----|
G|-10-10-10-10-10-10-|-10-10-10-10-10-10-|-10-10-10-10-10-10-|-10-R--10-R--10-R--|
D|-------------------|-------------------|-------------------|-------------------|
A|-------------------|-------------------|-------------------|-------------------|
D|-------------------|-------------------|-------------------|-------------------|
   *  *  *  *  *  *    *  *  *  *  *  *       *  *        *      

*Play Riff A, then:

e|-------------------|-------------------|-------------------|-------------------|
B|-11-11-11-11-11-11-|-11-11-11-11-11-11-|-11-11-11-11-11-11-|-11-11-11-11-11-11-|
G|-10-10-10-10-10-10-|-10-10-10-10-10-10-|-10-10-10-10-10-10-|-10-10-10-10-10-10-|
D|-------------------|-------------------|-------------------|-------------------|
A|-------------------|-------------------|-------------------|-------------------|
D|-------------------|-------------------|-------------------|-------------------|
   *  *  *  *  *  *    *  *  *  *  *  *    *  *  *  *  *  *    *  *  *  *  *  

*Play Riff A, then: 

e|-------------------|-------------------|-------------------|-------------------|
B|-11-11-11-11-11-11-|-11-11-11-11-11-11-|-------------------|-------------------|
G|-10-10-10-10-10-10-|-10-10-10-10-10-10-|-10-10-10-10-10-10-|-10-10-10-10-10-10-|
D|-------------------|-------------------|-------------------|-------------------|
A|-------------------|-------------------|-8--8--8--8--8--8--|-8--8--8--8--8--8--|
D|-------------------|-------------------|-------------------|-------------------|
   *  *  *  *  *  *    *  *  *  *  *  *    
________________________________________________
	Chorus 2 (Play Twice)


e|--------|-------------------|-------------------|-------------------|
B|--------|-------------------|-------------------|-------------------|
G|--------|/10-10-10-10-10-10-|-10-10-10-10-10-10-|-10-10-10-10-10-10-|
D|-0------|-------------------|-------------------|-------------------|
A|-0--0-0-|/8--8--8--8--8--8--|-8--8--8--8--8--8--|-8--8--8--8--8--8--|
D|-0--0-0-|-------------------|-------------------|-------------------|

e|-------------|--------------|-------------|--------------|
B|-------------|--------------|-------------|--------------|
G|-------------|--------------|-------------|--------------|
D|-0-3-5-7-5-3-|--------------|-0-3-5-7-5-3-|--------------|
A|-------------|-10-0-7-0-8-0-|-------------|-10-0-7-0-8-0-|
D|-------------|--------------|-------------|--------------|

e|-------------|-------------|-------------|-------------|
B|-------------|-------------|-------------|-------------|
G|-------------|-------------|-------------|-------------|
D|-------------|-------------|-------------|-------------|
A|-8-8-8-8-8-8-|-8-8-8-8-8-8-|-8-8-8-8-8-8-|-8-8-8-8-8-8-|
D|-8-8-8-8-8-8-|-8-8-8-8-8-8-|-8-8-8-8-8-8-|-8-8-8-8-8-8-|

e|-------------|-------------|          |-------------|-------------|
B|-------------|-------------|  *First  |-------------|-------------|
G|-------5-----|-------------|  Time    |-------3-----|-------------|
D|-3/5-8---8-7-|-8-0-5-0-7-0-|  ----->  |-3-5-7---7-5-|-7--3-0-3-0--|
A|-------------|-------------|          |-------------|-------------|
D|-------------|-------------|          |-------------|-------------|

*Second |---------|---------|
 Time   |---------|---------|
 -----> |---------|---------|
        |-5--5--5-|-5--5--5-|
        |-5--5--5-|-5--5--5-|
        |-5--5--5-|-5--5--5-|

__________________________________________________
	Screaming Part A (Help us to get out)

           
e|---------|-------------|---------------------|
B|----6\---|----------6\-|------------------6\-|
G|---------|-------------|---------------------|
D|-0-------|-------------|---------------0-----|
A|-0-------|---0---0-----|-0-0-0--0-0-0--0-----|
D|-0-------|---0---0-----|-0-0-0--0-0-0--0-----|
                           * * *  * * * 

e|---------------------|----------------|------------|---------------------|
B|---------------------|-------------6\-|---------6\-|------------------6\-|
G|---------------------|----------------|------------|---------------------|
D|---------------7-8-7-|-----------0----|------------|---------------0-----|
A|---0----0----0-------|-7-8-0-----0----|---0--0-----|-0-0-0--0-0-0--0-----|
D|---0----0----0-------|--------3--0----|---0--0-----|-0-0-0--0-0-0--0-----|
               *                                       * * *  * * * 

e|---------------------|----------|
B|---------------------|----------|
G|---------------------|----------|
D|---------------7-8-7-|----------|
A|--0----0----0--------|-7-8-0----|
D|--0----0----0--------|--------3-|
              *
______________________________________
	Screaming Part B (Rise Up)

e|----------|---|-----------------------|-----------------------|
B|----------|---|-----------------------|-----------------------|
G|----------|-R-|-----------------------|-----------------------|
D|----------|---|-----------------------|-----------------------|
A|-0-0--0-0-|---|-0--0--0--0-0-0--0-0-0-|-0--0--0--0-0-0--0-0-0-|
D|-0-0--0-0-|---|-0--0--0--0-0-0--0-0-0-|-0--0--0--0-0-0--0-0-0-|
   * *  * *       *  *  *  * * *  * * *   *  *  *  * * *  * * *

e|---------|---|-----------------------|-----------------------|
B|---------|---|-----------------------|-----------------------|
G|---------|-R-|-----------------------|-----------------------|
D|---------|---|-----------------------|-----------------------|
A|-0-0--0--|---|-0--0--0--0-0-0--0-0-0-|-0--0--0--0-0-0--0-0-0-|
D|-0-0--0--|---|-0--0--0--0-0-0--0-0-0-|-0--0--0--0-0-0--0-0-0-|
   * *  *        *  *  *  * * *  * * *   *  *  *  * * *  * * *

e|----------|---|-----------------------|-----------------------|
B|----------|---|-----------------------|-----------------------|
G|----------|-R-|-----------------------|-----------------------|
D|----------|---|-----------------------|-----------------------|
A|-0-0--0-0-|---|-0--0--0--0-0-0--0-0-0-|-0--0--0--0-0-0--0-0-0-|
D|-0-0--0-0-|---|-0--0--0--0-0-0--0-0-0-|-0--0--0--0-0-0--0-0-0-|
   * *  * *       *  *  *  * * *  * * *   *  *  *  * * *  * * *

e|---------|---|-----------------------|--------------|
B|---------|---|-----------------------|--------------|
G|---------|-R-|-----------------------|--------------|
D|---------|---|-----------------------|--------------|
A|-0-0--0--|---|-0--0--0--0-0-0--0-0-0-|-0--0--0---0--|
D|-0-0--0--|---|-0--0--0--0-0-0--0-0-0-|-0--0--0---0--|
   * *  *        *  *  *  * * *  * * *   *  *  *   *
___________________________________
	Bridge

   |--Wait one beat before you start 
   |       
e|---------|:|-------------|:
B|---8-----|:|-----8---8---|:
G|-----5h7-|:|-5h7-5h7-5h7-|:
D|---------|:|-------------|:
A|---------|:|-------------|:
D|---------|:|-------------|:
            |--Repeat 7x----|   

e|--------|----|--------|----|--------|----|-------------|-------------|
B|--------|----|--------|----|--------|----|-------------|-------------|
G|--------|----|--------|----|--------|----|-------------|-------------|
D|-0--0-0-|-0--|-0--0-0-|-0--|-0--0-0-|-0--|-------------|-------------|
A|-0--0-0-|-0--|-0--0-0-|-0--|-0--0-0-|-0--|-0-0-0-0-0-0-|-0-0-0-0-0-0-|
D|-0--0-0-|-0--|-0--0-0-|-0--|-0--0-0-|-0--|-0-0-0-0-0-0-|-0-0-0-0-0-0-|
                                             * * * * * *   * * * * * *
_____________________________
	Half of the Chorus (Play 2x)

e|-------------|-------------------|-------------------|-------------------|
B|-------------|-------------------|-------------------|-------------------|
G|-------------|-14-14-14-14-14-14-|-14\12-12-12-12-12-|-12\10-10-10-10-10-|
D|-------------|-------------------|-------------------|-------------------|
A|-0-0-0-0-0-0-|-12-12-12-12-12-12-|-12\10-10-10-10-10-|-10\8--8--8--8--8--|
D|-0-0-0-0-0-0-|-------------------|-------------------|-------------------|

e|-------------|-------------------|-------------------|-------------------|
B|-------------|-------------------|-------------------|-------------------|
G|-------------|-15-15-15-15-15-15\|-10-10-10-10-10-10-|-10\14-14-14-14-14-|
D|-------------|-------------------|-------------------|-------------------|
A|-5-5-5-5-5-5-|-13-13-13-13-13-13\|-8--8--8--8--8--8--|-8-\12-12-12-12-12-|
D|-5-5-5-5-5-5-|-------------------|-------------------|-------------------|

e|-------------|-------------|-------------|-------------|
B|-------------|-------------|-------------|-------------|
G|-------------|-------------|-------------|-------------|
D|-------------|-------------|-------------|-------------|
A|-3-3-3-3-3-3-|-3-3-3-3-3-3-|-3-3-3-3-3-3-|-3-3-3-3-3-3-|
D|-3-3-3-3-3-3-|-3-3-3-3-3-3-|-3-3-3-3-3-3-|-3-3-3-3-3-3-|

e|-------------|-------------------|-------------|-------------|
B|-------------|-------------------|-------------|-------------|
G|-------------|-12-12-12-12-12-12-|-------------|-------------|
D|-------------|-------------------|-------------|-------------|
A|-5-5-5-5-5-5-|-10-10-10-10-10-10-|-8-8-8-8-8-8-|-8-8-8-8-8-8-|
D|-5-5-5-5-5-5-|-------------------|-8-8-8-8-8-8-|-8-8-8-8-8-8-|

________________________________________
	Pre-Outro

_ _ _ _ _ _ _ _ _ _ _ _  _

        e|-13----------------|-------------------|
        B|----13-13-10-------|-------13-10-11-10-|
Riff B  G|-------------12-10-|-14-10-------------|
        D|-------------------|-------------------| 
        A|-------------------|-------------------|
        D|-------------------|-------------------|
_ _ _ _ _ _ _ _ _ _ _ _ 

Play Riff B 6x, then:


e|-13----------15----|-13----------15----|-13----------------|-------------------|
B|----13-13-10----13-|----13-13-10----13-|----13-13-10-------|-------13-10-11-10-|
G|-------------------|-------------------|-------------12-10-|-14-10-------------|
D|-------------------|-------------------|-------------------|-------------------|
A|-------------------|-------------------|-------------------|-------------------|
D|-------------------|-------------------|-------------------|-------------------|

___________________________________
	Outro

Play Riff B 4x, then:

e|-13----------15-13-|-------------------|
B|----13-13-10-------|-10----13-10-11-10-|
G|-------------------|----10-------------|
D|-------------------|-------------------|
A|-------------------|-------------------|
D|-------------------|-------------------|

Play Riff B 1x, then:


e|-13----------15-|-13----------15-|
B|----13-13-10----|----13-13-10----|
G|----------------|----------------|
D|----------------|----------------|
A|----------------|----------------|
D|----------------|----------------|

Play Riff B 3x, then:


e|-----------------|-------------------|
B|-13--13-10-------|-------13-10-11-10-|
G|-----------12-10-|-14-10-------------|
D|-----------------|-------------------|
A|-----------------|-------------------|
D|-----------------|-------------------|

Play Riff B 3x, then:

 								         (Fade out)
e|-13----------15----|-13----------15----|-13----------------|-------------|----|
B|----10-13-10----13-|----10-13-10----13-|----13-13-10-------|-------13-11-|-13-|
G|-------------------|-------------------|-------------12-10-|-14-10-------|----|
D|-------------------|-------------------|-------------------|-------------|----|
A|-------------------|-------------------|-------------------|-------------|----|
D|-------------------|-------------------|-------------------|-------------|----|

__________________________________________


Guitar 2: Left Channel of Audio

__________________
	Intro

e|---|---|---|---|---|---|-------------|-------------|
B|---|---|---|---|---|---|-------------|-------------|
G|-R-|-R-|-R-|-R-|-R-|-R-|-------------|-------------|
D|---|---|---|---|---|---|-------------|-------------|
A|---|---|---|---|---|---|-0-0-0-0-0-0-|-0-0-0-0-0-0-|
D|---|---|---|---|---|---|-0-0-0-0-0-0-|-0-0-0-0-0-0-|
                           * * * * * *   * * * * * *

____________________________
	Chorus 1 (play it 2x)

e|--------|----|-------------------|-------------------|
B|--------|----|-10-10-10-10-10-10-|-10-10-10-10-10-10\|
G|--------|----|-------------------|-------------------|
D|-0--0-0-|-0--|-------------------|-------------------|
A|-0--0-0-|-0--|-------------------|-------------------|
D|-0--0-0-|-0--|-------------------|-------------------|

e|-------------|-------------|-------------|-------------|
B|-------------|-------------|-------------|-------------|
G|-------------|-------------|-------------|-------------|
D|-------------|-------------|-------------|-------------|
A|-5-5-5-5-5-5-|-5-5-5-5-5-5-|-5-5-5-5-5-5-|-5-5-5-5-5-5-|
D|-5-5-5-5-5-5-|-5-5-5-5-5-5-|-5-5-5-5-5-5-|-5-5-5-5-5-5-|

e|-------------|-------------------|--------------|-------------|
B|-------------|-------------------|--------------|-------------|
G|-------------|/12-12-12-12-12-12-|-12\7-7-7-7-7-|-7-7-7-7-7-7-|
D|-------------|-------------------|--------------|-------------|
A|-8-8-8-8-8-8-|/10-10-10-10-10-10-|-10\5-5-5-5-5-|-5-5-5-5-5-5-|
D|-8-8-8-8-8-8-|-------------------|--------------|-------------|

e|-------------|-------------|-------------|-------------|
B|-------------|-------------|-------------|-------------|
G|-------------|-------------|-------------|-------------|
D|-------------|-------------|-------------|-------------|
A|-3-3-3-3-3-3-|-3-3-3-3-3-3-|-5-5-5-5-5-5-|-5-5-5-5-5-5-|
D|-3-3-3-3-3-3-|-3-3-3-3-3-3-|-5-5-5-5-5-5-|-5-5-5-5-5-5-|


*On the 2nd time, the first line is:

e|--------|-------------------|-------------------|--------------|
B|--------|/10-10-10-10-10-10-|-10-10-10-10-10-10-|-10\8-8-8-8-8-|
G|--------|-------------------|-------------------|--------------|
D|-0--0-0-|-------------------|-7--7--7--7--7--7--|-7\-5-5-5-5-5-|
A|-0--0-0-|-------------------|-------------------|--------------|
D|-0--0-0-|-------------------|-------------------|--------------|

______________________________________
	Verse 1 (Palm Muted part)

e|-------------|-------------|-------------|-------------|
B|-------------|-------------|-------------|-------------|   --|
G|-------------|-------------|-------------|-------------|     |
D|-------------|-------------|-------------|-------------|     |
A|-0-0-0-0-0-0-|-0-0-0-0-0-0-|-0-0-0-0-0-0-|-0-8-8-8-8-8-|
D|-0-0-0-0-0-0-|-0-0-0-0-0-0-|-0-0-0-0-0-0-|-0-8-8-8-8-8-|    Play
   * * * * * *   * * * * * *   * * * * * *   * * * * * *     these
                                                              3x      
e|-------------|-------------|-------------|-------------|     |
B|-------------|-------------|-------------|-------------|     |
G|-------------|-------------|-------------|-------------|   --|   
D|-------------|-------------|-------------|-------------|
A|-3-3-3-3-3-3-|-3-3-3-3-3-3-|-3-3-3-3-3-3-|-3-3-3-3-3-3-|
D|-3-3-3-3-3-3-|-3-3-3-3-3-3-|-3-3-3-3-3-3-|-3-3-3-3-3-3-|
   * * * * * *   * * * * * *   * * * * * *   * * * * * * 


e|-------------|-------------|-------------|-------------|
B|-------------|-------------|-------------|-------------|
G|-------------|-------------|-------------|-------------|
D|-------------|-------------|-------------|-------------|
A|-0-0-0-0-0-0-|-0-0-0-0-0-0-|-0-0-0-0-0-0-|-0-8-8-8-8-8-|
D|-0-0-0-0-0-0-|-0-0-0-0-0-0-|-0-0-0-0-0-0-|-0-8-8-8-8-8-| 
   * * * * * *   * * * * * *   * * * * * *   * * * * * *   

e|-------------|-------------|-------------------|-------------------|
B|-------------|-------------|-------------------|-------------------|
G|-------------|-------------|-10-10-10-10-10-10-|-10-10-10-10-10-10-|
D|-------------|-------------|-------------------|-------------------|
A|-3-3-3-3-3-3-|-3-3-3-3-3-3-|-8--8--8--8--8--8--|-8--8--8--8--8--8--|
D|-3-3-3-3-3-3-|-3-3-3-3-3-3-|-------------------|-------------------|
   * * * * * *   * * * * * *   

__________________________________
	Chorus 2 

e|--------|----|-------------------|-------------------|
B|--------|----|-10-10-10-10-10-10-|-10-10-10-10-10-10\|
G|--------|----|-------------------|-------------------|
D|-0--0-0-|-0--|-------------------|-------------------|
A|-0--0-0-|-0--|-------------------|-------------------|
D|-0--0-0-|-0--|-------------------|-------------------|

e|-------------|-------------|-------------|-------------|
B|-------------|-------------|-------------|-------------|
G|-------------|-------------|-------------|-------------|
D|-------------|-------------|-------------|-------------|
A|-5-5-5-5-5-5-|-5-5-5-5-5-5-|-5-5-5-5-5-5-|-5-5-5-5-5-5-|
D|-5-5-5-5-5-5-|-5-5-5-5-5-5-|-5-5-5-5-5-5-|-5-5-5-5-5-5-|

e|-------------|-------------------|--------------|-------------|
B|-------------|-------------------|--------------|-------------|
G|-------------|/12-12-12-12-12-12-|-12\7-7-7-7-7-|-7-7-7-7-7-7-|
D|-------------|-------------------|--------------|-------------|
A|-8-8-8-8-8-8-|/10-10-10-10-10-10-|-10\5-5-5-5-5-|-5-5-5-5-5-5-|
D|-8-8-8-8-8-8-|-------------------|--------------|-------------|

e|-------------|-------------|-------------|-------------|
B|-------------|-------------|-------------|-------------|
G|-------------|-------------|-------------|-------------|
D|-------------|-------------|-------------|-------------|
A|-3-3-3-3-3-3-|-3-3-3-3-3-3-|-5-5-5-5-5-5-|-5-5-5-5-5-5-|
D|-3-3-3-3-3-3-|-3-3-3-3-3-3-|-5-5-5-5-5-5-|-5-5-5-5-5-5-|



e|--------|-------------------|-------------------|--------------|
B|--------|/10-10-10-10-10-10-|-10-10-10-10-10-10-|-10\8-8-8-8-8-|
G|--------|-------------------|-------------------|--------------|
D|-0--0-0-|-------------------|-7--7--7--7--7--7--|-7\-5-5-5-5-5-|
A|-0--0-0-|-------------------|-------------------|--------------|
D|-0--0-0-|-------------------|-------------------|--------------|

e|-------------|-------------|-------------|-------------|
B|-------------|-------------|-------------|-------------|
G|-------------|-------------|-------------|-------------|
D|-------------|-------------|-------------|-------------|
A|-5-5-5-5-5-5-|-5-5-5-5-5-5-|-5-5-5-5-5-5-|-5-5-5-5-5-5-|
D|-5-5-5-5-5-5-|-5-5-5-5-5-5-|-5-5-5-5-5-5-|-5-5-5-5-5-5-|

e|-------------|-------------------|--------------|-------------|
B|-------------|-------------------|--------------|-------------|
G|-------------|/12-12-12-12-12-12-|-12\7-7-7-7-7-|-7-7-7-7-7-7-|
D|-------------|-------------------|--------------|-------------|
A|-8-8-8-8-8-8-|/10-10-10-10-10-10-|-10\5-5-5-5-5-|-5-5-5-5-5-5-|
D|-8-8-8-8-8-8-|-------------------|--------------|-------------|

e|-------------|-------------|-------|-------|
B|-------------|-------------|-------|-------|
G|-------------|-------------|-------|-------|
D|-------------|-------------|-------|-------|
A|-3-3-3-3-3-3-|-3-3-3-3-3-3-|-5-5-5-|-5-5-5-|
D|-3-3-3-3-3-3-|-3-3-3-3-3-3-|-5-5-5-|-5-5-5-|


__________________________________________________
	Screaming Part A (Help us to get out)

e|----10\--|---------10\|------------------10\|
B|---------|------------|---------------------|
G|---------|------------|---------------------|
D|-0-------|------------|---------------0-----|
A|-0-------|--0---0-----|-0-0-0--0-0-0--0-----|
D|-0-------|--0---0-----|-0-0-0--0-0-0--0-----|
                          * * *  * * * 

e|------------------|--------------10\|---------10\|------------------10\|
B|------------------|-----------------|------------|---------------------|
G|------------------|-----------------|------------|---------------------|
D|------------3-5-0-|-----------0-----|------------|---------------0-----|
A|--0---0---0-------|-3-5-0-----0-----|--0---0-----|-0-0-0--0-0-0--0-----|
D|--0---0---0-------|--------3--0-----|--0---0-----|-0-0-0--0-0-0--0-----|
            *                                        * * *  * * * 

e|------------------|-----------|
B|------------------|-----------|
G|------------------|-----------|
D|------------3-5-0-|-----------|
A|--0---0---0-------|-3-5-0-----|
D|--0---0---0-------|--------3--|
            *
______________________________________
	Screaming Part B (Rise Up)

e|----------|---|-----------------------|-----------------------|
B|----------|---|-----------------------|-----------------------|
G|----------|-R-|-----------------------|-----------------------|
D|----------|---|-----------------------|-----------------------|
A|-0-0--0-0-|---|-0--0--0--0-0-0--0-0-0-|-0--0--0--0-0-0--0-0-0-|
D|-0-0--0-0-|---|-0--0--0--0-0-0--0-0-0-|-0--0--0--0-0-0--0-0-0-|
   * *  * *       *  *  *  * * *  * * *   *  *  *  * * *  * * *

e|---------|---|-----------------------|-----------------------|
B|---------|---|-----------------------|-----------------------|
G|---------|-R-|-----------------------|-----------------------|
D|---------|---|-----------------------|-----------------------|
A|-0-0--0--|---|-0--0--0--0-0-0--0-0-0-|-0--0--0--0-0-0--0-0-0-|
D|-0-0--0--|---|-0--0--0--0-0-0--0-0-0-|-0--0--0--0-0-0--0-0-0-|
   * *  *        *  *  *  * * *  * * *   *  *  *  * * *  * * *

e|----------|---|-----------------------|-----------------------|
B|----------|---|-----------------------|-----------------------|
G|----------|-R-|-----------------------|-----------------------|
D|----------|---|-----------------------|-----------------------|
A|-0-0--0-0-|---|-0--0--0--0-0-0--0-0-0-|-0--0--0--0-0-0--0-0-0-|
D|-0-0--0-0-|---|-0--0--0--0-0-0--0-0-0-|-0--0--0--0-0-0--0-0-0-|
   * *  * *       *  *  *  * * *  * * *   *  *  *  * * *  * * *

e|---------|---|-----------------------|--------------|
B|---------|---|-----------------------|--------------|
G|---------|-R-|-----------------------|--------------|
D|---------|---|-----------------------|--------------|
A|-0-0--0--|---|-0--0--0--0-0-0--0-0-0-|-0--0--0---0--|
D|-0-0--0--|---|-0--0--0--0-0-0--0-0-0-|-0--0--0---0--|
   * *  *        *  *  *  * * *  * * *   *  *  *   *
__________________________________
	Bridge
 
e|-------------------| *Repeat 8x
B|-11p10h11p10h11p10-| Strum at the
G|-------------------|  start of every measure.
D|-------------------| Don't hammer on/ pull off
A|-------------------|  the whole time.
D|-------------------|

e|------------------| 
B|------------------| 
G|-15-14-12---------| Repeat 6x
D|----------0-10-12-| 
A|------------------| 
D|------------------|
 
e|-------------|-------------|
B|-------------|-------------|
G|-------------|-------------|
D|-------------|-------------|
A|-0-0-0-0-0-0-|-0-0-0-0-0-0-|
D|-0-0-0-0-0-0-|-0-0-0-0-0-0-|
   * * * * * *   * * * * * *   

____________________________________________________
	Half Chorus
  
e|------------------| 
B|------------------| 
G|-15-14-12---------| Repeat 32x
D|----------0-10-12-| 
A|------------------| 
D|------------------|

______________________________________________
	Pre- Outro

e|-------------|-------------|-------------|-------------|
B|-------------|-------------|-------------|-------------|
G|-------------|-------------|-------------|-------------|
D|-------------|-------------|-------------|-------------|
A|-0-0-0-0-0-0-|-0-0-0-0-0-0-|-0-0-0-0-0-0-|-0-0-0-0-0-0-|
D|-0-0-0-0-0-0-|-0-0-0-0-0-0-|-0-0-0-0-0-0-|-0-0-0-0-0-0-|   

e|-------------|-------------|-------------|-------------|
B|-------------|-------------|-------------|-------------|
G|-------------|-------------|-------------|-------------|
D|-------------|-------------|-------------|-------------|
A|-8-8-8-8-8-8-|-8-8-8-8-8-8-|-8-8-8-8-8-8-|-8-8-8-8-8-8-|
D|-8-8-8-8-8-8-|-8-8-8-8-8-8-|-8-8-8-8-8-8-|-8-8-8-8-8-8-|

e|-------------|-------------|-------------|-------------|
B|-------------|-------------|-------------|-------------|
G|-------------|-------------|-------------|-------------|
D|-------------|-------------|-------------|-------------|
A|-3-3-3-3-3-3-|-3-3-3-3-3-3-|-3-3-3-3-3-3-|-3-3-3-3-3-3-|
D|-3-3-3-3-3-3-|-3-3-3-3-3-3-|-3-3-3-3-3-3-|-3-3-3-3-3-3-|

e|-------------|-------------|-------|-------|
B|-------------|-------------|-------|-------|
G|-------------|-------------|-------|-------|
D|-------------|-------------|-------|-------|
A|-8-8-8-8-8-8-|-8-8-8-8-8-8-|-8-8-8-|-8-8-8-|
D|-8-8-8-8-8-8-|-8-8-8-8-8-8-|-8-8-8-|-8-8-8-|

___________________________________________
	Outro  (play 2x)

e|--------|----|-------------------|-------------------|
B|--------|----|-10-10-10-10-10-10-|-10-10-10-10-10-10\|
G|--------|----|-------------------|-------------------|
D|-0--0-0-|-0--|-------------------|-------------------|
A|-0--0-0-|-0--|-------------------|-------------------|
D|-0--0-0-|-0--|-------------------|-------------------|

e|-------------|-------------|-------------|-------------|
B|-------------|-------------|-------------|-------------|
G|-------------|-------------|-------------|-------------|
D|-------------|-------------|-------------|-------------|
A|-5-5-5-5-5-5-|-5-5-5-5-5-5-|-5-5-5-5-5-5-|-5-5-5-5-5-5-|
D|-5-5-5-5-5-5-|-5-5-5-5-5-5-|-5-5-5-5-5-5-|-5-5-5-5-5-5-|

e|-------------|-------------|-------------|-------------|
B|-------------|-------------|-------------|-------------|
G|-------------|-------------|-------------|-------------|
D|-------------|-------------|-------------|-------------|
A|-8-8-8-8-8-8-|-8-8-8-8-8-8-|-8-8-8-8-8-8-|-8-8-8-8-8-8-|
D|-8-8-8-8-8-8-|-8-8-8-8-8-8-|-8-8-8-8-8-8-|-8-8-8-8-8-8-|

e|-------------|-------------|-------------|-------------|
B|-------------|-------------|-------------|-------------|
G|-------------|-------------|-------------|-------------|
D|-------------|-------------|-------------|-------------|
A|-3-3-3-3-3-3-|-3-3-3-3-3-3-|-5-5-5-5-5-5-|-5-5-5-5-5-5-|
D|-3-3-3-3-3-3-|-3-3-3-3-3-3-|-5-5-5-5-5-5-|-5-5-5-5-5-5-|


e|--------|-------------------|-------------------|--------------|
B|--------|/10-10-10-10-10-10-|-10-10-10-10-10-10-|-10\8-8-8-8-8-|
G|--------|-------------------|-------------------|--------------|
D|-0--0-0-|-------------------|-7--7--7--7--7--7--|-7\-5-5-5-5-5-|
A|-0--0-0-|-------------------|-------------------|--------------|
D|-0--0-0-|-------------------|-------------------|--------------|

e|-------------|-------------|-------------|-------------|
B|-------------|-------------|-------------|-------------|
G|-------------|-------------|-------------|-------------|
D|-------------|-------------|-------------|-------------|
A|-5-5-5-5-5-5-|-5-5-5-5-5-5-|-5-5-5-5-5-5-|-5-5-5-5-5-5-|
D|-5-5-5-5-5-5-|-5-5-5-5-5-5-|-5-5-5-5-5-5-|-5-5-5-5-5-5-|

e|-------------|-------------|-------------|-------------|
B|-------------|-------------|-------------|-------------|
G|-------------|-------------|-------------|-------------|
D|-------------|-------------|-------------|-------------|
A|-8-8-8-8-8-8-|-8-8-8-8-8-8-|-8-8-8-8-8-8-|-8-8-8-8-8-8-|
D|-8-8-8-8-8-8-|-8-8-8-8-8-8-|-8-8-8-8-8-8-|-8-8-8-8-8-8-|

                                             (fade out)
e|-------------|-------------|-------|-------|----|
B|-------------|-------------|-------|-------|----|
G|-------------|-------------|-------|-------|----|
D|-------------|-------------|-------|-------|-0--|
A|-3-3-3-3-3-3-|-3-3-3-3-3-3-|-5-5-5-|-5-5-5-|-0--|
D|-3-3-3-3-3-3-|-3-3-3-3-3-3-|-5-5-5-|-5-5-5-|-0--|

______________________________


	Guitar 3:  Only plays during bridge and Outro

________________________
	Bridge:

Rest 8 measures (start when guitar 2 starts the "15 14 12 0 10 12")
 
e|-------------------| 
B|-11p10h11p10h11p10-|
G|-------------------|  Repeat 6x
D|-------------------|
A|-------------------|
D|-------------------|

____________________________________
	Outro:   (Play 2x)

e|--------|-------------------|-------------------|-------------------|
B|--------|-------------------|-------------------|-------------------|
G|--------|/10-10-10-10-10-10-|-10-10-10-10-10-10-|-10-10-10-10-10-10-|
D|-0--0-0-|-------------------|-------------------|-------------------|
A|-0--0-0-|/8--8--8--8--8--8--|-8--8--8--8--8--8--|-8--8--8--8--8--8--|
D|-0--0-0-|-------------------|-------------------|-------------------|

e|-------------|-------------|-------------|-------------|
B|-------------|-------------|-------------|-------------|
G|-------------|-------------|-------------|-------------|
D|-------------|-------------|-------------|-------------|
A|-5-5-5-5-5-5-|-5-5-5-5-5-5-|-5-5-5-5-5-5-|-5-5-5-5-5-5-|
D|-5-5-5-5-5-5-|-5-5-5-5-5-5-|-5-5-5-5-5-5-|-5-5-5-5-5-5-|

e|-------------|-------------|-------------|-------------|
B|-------------|-------------|-------------|-------------|
G|-------------|-------------|-------------|-------------|
D|-------------|-------------|-------------|-------------|
A|-8-8-8-8-8-8-|-8-8-8-8-8-8-|-8-8-8-8-8-8-|-8-8-8-8-8-8-|
D|-8-8-8-8-8-8-|-8-8-8-8-8-8-|-8-8-8-8-8-8-|-8-8-8-8-8-8-|

e|-------------|-------------|-------------|-------------|
B|-------------|-------------|-------------|-------------|
G|-------------|-------------|-------------|-------------|
D|-------------|-------------|-------------|-------------|
A|-3-3-3-3-3-3-|-3-3-3-3-3-3-|-5-5-5-5-5-5-|-5-5-5-5-5-5-|
D|-3-3-3-3-3-3-|-3-3-3-3-3-3-|-5-5-5-5-5-5-|-5-5-5-5-5-5-|


*On 2nd time, last line is:


                                            ( fade out)
e|-------------|-------------|-------|-------|----|
B|-------------|-------------|-------|-------|----|
G|-------------|-------------|-------|-------|----|
D|-------------|-------------|-------|-------|-0--|
A|-3-3-3-3-3-3-|-3-3-3-3-3-3-|-5-5-5-|-5-5-5-|-0--|
D|-3-3-3-3-3-3-|-3-3-3-3-3-3-|-5-5-5-|-5-5-5-|-0--|





Comments


Popular Blessthefall tabs & chords
A Message To The Unknown Bass Tabs
Higinia Bass Tabs
Times Like These Drum Tabs
40 Days Tabs
Bottomfeeder Tabs
Higinia Tabs
Take Me Now 1 Tabs
Times Like These 1 Tabs
Times Like These 4 Tabs
Undefeated Intro Tabs


Song lyrics



↑ Back to top | Tablatures and chords are parodies/interpretations of the original songs. You may use it for private study, scholarship, research or language learning purposes only
© 2014 AZChords.com Contact us | Privacy policy | DMCA | Add/correct tabs | Request tabs | Top 50 tabs