>
 >
Pray

Pray Guitar Tabs

Blessthefall - Pray chords, tabs, tablatures, lyrics

Guitar lessons | Add/correct | Request | Top 50 tabs Artists:  A B C D E F G H I J K L M N O P Q R S T U V W X Y Z 0-9

Pray Guitar Tabs – Blessthefall

CD, Sheet music, Poster

Do you like Pray? Share with your friends now
Tabs

Tuning: Drop D

NOTES: -This is the ALBUM VERSION from the CD of iTunes.
       -During the BRIDGE, there is a 3rd guitar part. I tabbed all three.

GUITAR I

INTRO/VERSE I - Acoustic - [x8]

e|---------------------------------------------|
B|--5--55-55---5--55-55---5--55-55---5--55-55--|
G|--2--22-22---2--22-22---2--22-22---2--22-22--|
D|--4--44-44---4--44-44---4--44-44---4--44-44--|
A|---------------------------------------------|
D|---------------------------------------------|


e|---------------------------------------------|
B|--5--55-55---5--55-55---5--55-55---5--55-55--|
G|--2--22-22---2--22-22---2--22-22---2--22-22--|
D|--0--00-00---0--00-00---0--00-00---0--00-00--|
A|---------------------------------------------|
D|---------------------------------------------|

CHORUS - Distorted

(LAY...)
e|---12121212-121212--12121212----12121212-121212--12121212--------|
B|-----------------------------------------------------------------|
G|-----------------------------------------------------------------|
D|-----------------------------------------------------------------|
A|-----------------------------------------------------------------|
D|-----------------------------------------------------------------|

(Down...)
e|-------------------------------------------------------|
B|--15-14-12-14-12-10-9h10p9-7-9-5--7--9--10--12--10--9--|
G|-------------------------------------------------------|
D|-------------------------------------------------------|
A|-------------------------------------------------------|
D|-------------------------------------------------------|

(PRAY...)
e|---12121212-121212--12121212----12121212-121212--12121212--------|
B|-----------------------------------------------------------------|
G|-----------------------------------------------------------------|
D|-----------------------------------------------------------------|
A|-----------------------------------------------------------------|
D|-----------------------------------------------------------------|

(Now...)
e|--14--16---| Tremolo Here
B|-----------|
G|-----------|
D|-----------|
A|-----------|
D|-----------|

(LAY...)
e|--17-16-17-16h17p16-14-16-17-16-17--17-16-17-16h17p16-14-16-17-16-17-------|
B|---------------------------------------------------------------------------|
G|---------------------------------------------------------------------------|
D|---------------------------------------------------------------------------|
A|---------------------------------------------------------------------------|
D|---------------------------------------------------------------------------|

(Down...)
e|----------------------------------------------------------|
B|--101010101010--121212121212--141414141414--151515151515--|
G|----------------------------------------------------------|
D|----------------------------------------------------------|
A|----------------------------------------------------------|
D|----------------------------------------------------------|

(PRAY...)
e|--------------12----------------------9-10-9--|
B|--9-10-9h10p9----10-9-----9-10-9h10p9---------|
G|----------------------------------------------|
D|----------------------------------------------|
A|----------------------------------------------|
D|----------------------------------------------|

(Now...)
e|---------------|
B|--10~--9~------|
G|-----------9~--|
D|---------------|
A|---------------|
D|---------------|

VERSE II

e|---------------------------------------------------------------------------|
B|--10-9----10-9----10-9----12-10-9--10-9---10-9------9-10-12-10-9-----------|
G|-------9-------9-------9----------------9------9-11------------------------|
D|---------------------------------------------------------------------------|
A|---------------------------------------------------------------------------|
D|---------------------------------------------------------------------------|

e|---------------------------------------------------------------------------|
B|--10-9-7~-9-10-9-7~-9-10-9---10-9---10-9----10-9---------------------------|
G|---------------------------9------9------9-------9-------------------------|
D|---------------------------------------------------------------------------|
A|---------------------------------------------------------------------------|
D|---------------------------------------------------------------------------|

e|----------------------|
B|----------------------|
G|----------------------|
D|----------------------|
A|--12-11---------------|  Then it's basically the same thing
D|--------14------------| but here until the pause which is on the 11.

e|----------------------|
B|----------------------|
G|----------------------|
D|----------------------|
A|--11----11-12-11------| And this until the chorus.
D|-----14----------14---|

Repeat Chorus

BRIDGE

e|---------------------------------------------------------------|
B|--10p5t10p5t10p5t12p5t12p5t12p5t14p5t14p5t14p5t12p5t12p5t12p5--|
G|---------------------------------------------------------------|
D|---------------------------------------------------------------|
A|---------------------------------------------------------------|
D|---------------------------------------------------------------| [x3]

e|---------------------------------------|
B|--10p5t10p5t10p5t12p5t12p5t12p5t10~~~--|
G|---------------------------------------|
D|---------------------------------------|
A|---------------------------------------|
D|---------------------------------------| [x1]

e|---------------------------------------|
B|--9h10p9------9h10p9-------------------|
G|--------9h11p9------9/11-9h11p9--------|
D|-------------------------------11------| 
A|---------------------------------------|
D|---------------------------------------| [x8]

CHORUS

e|---------------------------------------|
B|---------------------------------------|
G|---------------------------------------|
D|--4-------0----------------------------|
A|--4-[x32]-0-[x32]----------------------|
D|--4-------0----------------------------|

e|---------------------------------------|
B|---------------------------------------|
G|---------------------------------------|
D|--11-11p9-7--6-6h7p6-------------------|
A|---------------------7h9---------------|
D|---------------------------------------| [x4]

e|-------------------------------------------|
B|-------------------------------------------|
G|-------------------------------------------|
D|----------------------------------------9--|
A|--11h12p11-7h9p7-11------11h12p11-7h9p7----|
D|-------------------------------------------| [x1]

e|---------------------------------------|
B|---------------------------------------|
G|---------------------------------------|
D|--11-11p9-7--6-6h7p6-------------------|
A|---------------------7h9---------------|
D|---------------------------------------| [x2]

e|-------------------------------------------|
B|-------------------------------------------|
G|-------------------------------------------|
D|----------------------------------------9--|
A|--11h12p11-7h9p7-11------11h12p11-7h9p7----|
D|-------------------------------------------| [x1]

e|---------------------------------------|
B|---------------------------------------|
G|---------------------------------------|
D|--11-11p9-7--6-6h7p6-------------------|
A|---------------------7h9---------------|
D|---------------------------------------| [x2]

e|----------------------|
B|----------------------|
G|----------------------|
D|----0~~---------------|
A|----0~~---------------|
D|----0~~---------------|

____________________________________________________________________________

GUITAR II

INTRO/VERSE I - Acoustic - [x8]

e|---------------------------------------------|
B|--5--55-55---5--55-55---5--55-55---5--55-55--|
G|--2--22-22---2--22-22---2--22-22---2--22-22--|
D|--4--44-44---4--44-44---4--44-44---4--44-44--|
A|---------------------------------------------|
D|---------------------------------------------|


e|---------------------------------------------|
B|--5--55-55---5--55-55---5--55-55---5--55-55--|
G|--2--22-22---2--22-22---2--22-22---2--22-22--|
D|--0--00-00---0--00-00---0--00-00---0--00-00--|
A|---------------------------------------------|
D|---------------------------------------------|

CHORUS - Distorted - [x2]

e|---------------------------------------------------------------------------|
B|---------------------------------------------------------------------------|
G|-----------------------------------------11111111--1111--11131313--1313----|
D|--4444-444-----4444-444-----0000-000------x-x-x-x---x-x---x-x-x-x---x-x----|
A|--4444-444-----4444-444-----0000-000------9-9-9-9---9-9---9111111--1111----|
D|--4444-444-----4444-444-----0000-000---------------------------------------|

e|---------------------------------------------------------------------------|
B|---------------------------------------------------------------------------|
G|-----------------------------------------14141414--1414--14131313--1313----|
D|--4444-444-----4444-444-----0000-000------x-x-x-x---x-x---x-x-x-x---x-x----|
A|--4444-444-----4444-444-----0000-000-----12121212--1212--12111111--1111----|
D|--4444-444-----4444-444-----0000-000---------------------------------------| 

VERSE II - STACCATO

e|--------------------------------------------------------------------|
B|--------------------------------------------------------------------|
G|--------------------------------------------------------------------|
D|--4-4-4-4-4-4-4-4-4-4-4-4-0-0-0-0-0-0-0-0-0-0-0-0-------------------|
A|--4-4-4-4-4-4-4-4-4-4-4-4-0-0-0-0-0-0-0-0-0-0-0-0-------------------|
D|--4-4-4-4-4-4-4-4-4-4-4-4-0-0-0-0-0-0-0-0-0-0-0-0----[x3]-----------|

e|------------------------------------------------------------------------|
B|------------------------------------------------------------------------|
G|------------------------------------------------------------------------|
D|--4-4-4-4-4-4-4-4-4-4-4-4-0-0-0-0-0-0-0-0-0-0---------------------------|
A|--4-4-4-4-4-4-4-4-4-4-4-4-0-0-0-0-0-0-0-0-0-0---------------------------|
D|--4-4-4-4-4-4-4-4-4-4-4-4-0-0-0-0-0-0-0-0-0-0--------[x1]---------------|

e|--------------------------------------------------------------------|
B|--------------------------------------------------------------------|
G|--------------------------------------------------------------------|
D|--4-4-4-4-4-4-4-4-4-4-4-4-0-0-0-0-0-0-0-0-0-0-0-0-------------------|
A|--4-4-4-4-4-4-4-4-4-4-4-4-0-0-0-0-0-0-0-0-0-0-0-0-------------------|
D|--4-4-4-4-4-4-4-4-4-4-4-4-0-0-0-0-0-0-0-0-0-0-0-0----[x2]-----------|

CHORUS - Distorted - [x2]

e|---------------------------------------------------------------------------|
B|---------------------------------------------------------------------------|
G|-----------------------------------------11111111--1111--11131313--1313----|
D|--4444-444-----4444-444-----0000-000------x-x-x-x---x-x---x-x-x-x---x-x----|
A|--4444-444-----4444-444-----0000-000------9-9-9-9---9-9---9111111--1111----|
D|--4444-444-----4444-444-----0000-000---------------------------------------|

e|---------------------------------------------------------------------------|
B|---------------------------------------------------------------------------|
G|-----------------------------------------14141414--1414--14131313--1313----|
D|--4444-444-----4444-444-----0000-000------x-x-x-x---x-x---x-x-x-x---x-x----|
A|--4444-444-----4444-444-----0000-000-----12121212--1212--12111111--1111----|
D|--4444-444-----4444-444-----0000-000---------------------------------------|

BRIDGE - [HARMONY]

e|------------------------------------------------------|
B|--7p5t7p5t7p5t9p5t9p5t9p5t10p5t10p5t10p5t9p5t9p5t9p5--|
G|------------------------------------------------------|
D|------------------------------------------------------|
A|------------------------------------------------------|
D|------------------------------------------------------| [x3]

e|--------------------------------|
B|--7p5t7p5t7p5t9p5t9p5t9p5t7~~~--|
G|--------------------------------|
D|--------------------------------|
A|--------------------------------|
D|--------------------------------| [x1]

-*- 4 Measures of Guitar I -*-

e|----------------------------------------------|
B|--12h14p12--------12h14p14--------------------|
G|----------13h14p13--------13/14-13h14p13------|
D|----------------------------------------14----| 
A|----------------------------------------------|
D|----------------------------------------------|[x4]

CHORUS

e|---------------------------------------|
B|---------------------------------------|
G|---------------------------------------|
D|--4-------0----------------------------|
A|--4-[x32]-0-[x32]----------------------|
D|--4-------0----------------------------| [x2]

e|--------------------------------------------------------------------------|
B|--------------------------------------------------------------------------|
G|--------------------------------------------------------------------------|
D|--4444-4444-4--------4444-4444-4--------0000-0000-0--------0000-0000-0----|
A|--4444-4444-4--------4444-4444-4--------0000-0000-0--------0000-0000-0----|
D|--4444-4444-4--------4444-4444-4--------0000-0000-0--------0000-0000-0----|[x2]

e|---------------------------------------|
B|---------------------------------------|
G|---------------------------------------|
D|--0-------0----------------------------|
A|--0-[x32]-0~~~~~-----------------------|
D|--0-------0----------------------------|

___________________________________________________________________________

GUITAR III

BRIDGE

[Underneath Tapping] - STACCATO
e|--------------------------------------------------------------------|
B|--------------------------------------------------------------------|
G|--------------------------------------------------------------------|
D|--4-4-4-4-4-4-4-4-4-4-4-4-0-0-0-0-0-0-0-0-0-0-0-0-------------------|
A|--4-4-4-4-4-4-4-4-4-4-4-4-0-0-0-0-0-0-0-0-0-0-0-0-------------------|
D|--4-4-4-4-4-4-4-4-4-4-4-4-0-0-0-0-0-0-0-0-0-0-0-0-------------------| [x1]

e|--------------------------------------------------------------------|
B|--------------------------------------------------------------------|
G|--------------------------------------------------------------------|
D|--4-4-4-4-4-4-4-4-4-4-4-4-0-0-0-0-0-0-0~~~~~~~~~~-------------------|
A|--4-4-4-4-4-4-4-4-4-4-4-4-0-0-0-0-0-0-0~~~~~~~~~~-------------------|
D|--4-4-4-4-4-4-4-4-4-4-4-4-0-0-0-0-0-0-0~~~~~~~~~~-------------------| [x1]

[Underneath part after tapping]
e|------------------------------------------------------------------|
B|------------------------------------------------------------------|
G|------------------------------------------------------------------|
D|--44--44-44---44--44-44---4---00--00-00---00--00-00---799---------|
A|--44--44-44---44--44-44---4---00--00-00---00--00-00---799---------|
D|--44--44-44---44--44-44---4---00--00-00---00--00-00---799---------| [x2]
    ..  .. ..   ..  .. ..       ..  .. ..   ..  .. ..

Pretty sure it's like 99% correct.
Some parts are hard to hear.

Support the band, stop using Limewire.

| /  slide up
| \  slide down
| h  hammer-on
| p  pull-off
| ~  vibrato
| +  harmonic
| x  Mute note





Comments


Popular Blessthefall tabs & chords
Rise Up 2 Bass Tabs
Whats Left Of Me Bass Tabs
Wait For Tomorrow Chords
2.0 Tabs
Guys Like You Make Us Look Bad Tabs
Higinia 4 Tabs
His Last Walk 1 Tabs
Rise Up 4 Tabs
Wait For Tomorrow Tabs
Whats Left Of Me 2 Tabs


Song lyrics



↑ Back to top | Tablatures and chords are parodies/interpretations of the original songs. You may use it for private study, scholarship, research or language learning purposes only
© 2014 AZChords.com Contact us | Privacy policy | DMCA | Add/correct tabs | Request tabs | Top 50 tabs