>
 >
Last Ones Left

Last Ones Left Guitar Tabs

Blessthefall - Last Ones Left chords, tabs, tablatures, lyrics

Guitar lessons | Add/correct | Request | Top 50 tabs Artists:  A B C D E F G H I J K L M N O P Q R S T U V W X Y Z 0-9

Last Ones Left Guitar Tabs – Blessthefall

CD, Sheet music, Poster

Do you like Last Ones Left? Share with your friends now
TabsTabs v2

Tuning:Drop D

it was really easy to figure out this song i simply just started
playing to it...
Intro/Chorus
(0:00-0:24)
e|----------------------------------------------------------|
B|----------------------------------------------------------|
G|---10-----12-----14-----17-----14-----\15-----10\12-------|
D|----X-X12--X--X4--X-X12--X-X4---X-X12---X-X12--X--X-X12---|X2
A|----8-----10-----12-----15-----12-----\13------8\10-------|
E|----------------------------------------------------------|

Verse
(0:25-0:46)
e|----------------------------------------|-------------10~------------------------|
B|-----------10~--------------------------|----------------------------------------|
G|----------------------------------------|----------------------------------------|
D|--------------X2-----------3h5p3--------|-X2-------------X2---------3h5p3--------|
A|--00000-00-------0000-00---------3h5p3--|----00000-00-------0000-00------3h5p3---|
E|--00000-00-------0000-00--------------3-|----00000-00-------0000-00-----------3--|
pm. ..... ..       .... ..                     ..... ..       .... ..

continued...
e|---------------------------------------------|
B|---------------------------------------------|
G|---------------------------------------------|
D|---------------------------------------------|
A|--0000-0-000-000-00-000--0000000000000000----|
E|--0000-0-000-000-00-000--0000000000000000----|
pm. .... . ... ... .. ...  ................

Pre-chorus
(0:47-0:52)
e|---------------------------------------|
B|---------------------------------------|
G|---------------------------------------|
D|---------------------------------------|
A|--888888888888-555555555555555555------|
E|--888888888888-555555555555555555------|
pm. ............ ............

Chorus
(0:53-1:14)
e|----------------------------------------------------------|
B|----------------------------------------------------------|
G|---10-----12-----14-----17-----14-----\15-----10\12-------|
D|----X-X12--X--X4--X-X12--X-X4---X-X12---X-X12--X--X-X12---|X2
A|----8-----10-----12-----15-----12-----\13------8\10-------|
E|----------------------------------------------------------|

Breakdown
(1:15-1:48)       "p" is an pinch harmonic
e|---------------------------------------------------------------------|
B|---------------------------------------------------------------------|
G|---------------------------------------------------------------------|X2
D|---------------------------------------------------------------p7b---|the second time don't do
A|--00-0-000-00-000-00-0-000--5h8-5h8--00-0-000-00-000-00-0-000--------|the harmonic
E|--00-0-000-00-000-00-0-000-----------00-0-000-00-000-00-0-000--------|
pm. .. . ... .. ... .. . ...           .. . ... .. ... .. . ...
e|--------------------------------------------------------------------|
B|--------------------------------------------------------------------|
G|--------------------------------------------------------------------|
D|--------------------------------------------------------------------|
A|--00~-0~-000~-00~-000~-00-0-000--5h8-5h8--00-0-000-00-000-00-0-000--
E|--00~-0~-000~-00~-000~-00-0-000-----------00-0-000-00-000-00-0-000--|
pm. ..  .  ...  ..  ...  .. . ...           .. . ... .. ... .. . ...
Chorus

(1:48-2:32)           little slower
e|---------------------------------------------------------|
B|---------------------------------------------------------|
G|--10-10\-12-12\-14\-17-----14------\15-------10\12-------|
D|--X---X---X-X---X---X--X4---X-X12----X-X12----X--X-X12---|
A|--8---8\-10-10\-12\-15-----12------\13--------8\10-------|
E|---------------------------------------------------------|

e|----------------------------------------------------------|
B|----------------------------------------------------------|
G|---10-----12-----14-----17-----14-----\15-----10\12-------|
D|----X-X12--X--X4--X-X12--X-X4---X-X12---X-X12--X--X-X12---|X3
A|----8-----10-----12-----15-----12-----\13------8\10-------|
E|----------------------------------------------------------|

Outro
(2:32-X)
e|----------------------------|
B|----------------------------|
G|----------------------------|
D|----------------------------|
A|--0000000-0--00000000-0-----|
E|--0000000-0--00000000-0-----|
pm. ....... .  ........ .
e|---------------------------------------------|
B|---------------------------------------------|
G|---------------------------------------------|
D|---------------------------------------------|
A|--0000-0-000-000-00-000--0000000000000000----|
E|--0000-0-000-000-00-000--0000000000000000----|
pm. .... . ... ... .. ...  ................



************************************
| p   pinch harmonic
| /   slide up
| \   slide down
| h   hammer-on
| p   pull-off
| ~   vibrato
| +   harmonic
| x   Mute note
| b   Bend
| pb  Pre-bend
| br  Bend release
| pbr Pre-bend release
| brb Bend release bend

************************************





Comments


Popular Blessthefall tabs & chords
A Message To The Unknown Bass Tabs
Guys Like You Make Us Look Bad Bass Tabs
Could Tell A Love Intro Tabs
Guys Like You Make Us Look Bad 2 Tabs
Guys Like You Make Us Look Bad 3 Tabs
His Last Walk Tabs
Meet Me At The Gates Tabs
Rise Up Acoustic Intro Tabs
Stay Still Intro 2 Tabs
Take Me Now Intro Tabs


Song lyrics



↑ Back to top | Tablatures and chords are parodies/interpretations of the original songs. You may use it for private study, scholarship, research or language learning purposes only
© 2014 AZChords.com Contact us | Privacy policy | DMCA | Add/correct tabs | Request tabs | Top 50 tabs