>
 >
Higinia

Higinia Guitar Tabs

Blessthefall - Higinia chords, tabs, tablatures, lyrics

Guitar lessons | Add/correct | Request | Top 50 tabs Artists:  A B C D E F G H I J K L M N O P Q R S T U V W X Y Z 0-9

Higinia Guitar Tabs – Blessthefall

CD, Sheet music, Poster

Do you like Higinia? Share with your friends now
Bass TabsBass Tabs v2TabsTabs v2Tabs v3Tabs v4Tabs v5
Title       : Higinia
Artist      : Bless The Fall
/***************************************************************************/
 *lame comments removed*
/***************************************************************************/
Tuning    : Drop D

Legend:
 - G1 = Guitar 1
 - G2 = Guitar 2
 - h  = hammer on
 - p  = pull off
 - *  = mute
 - .  = palm mute
 - ~  = let ring
 - ^  = bend
 - /  = slide up
 - \  = slide down

/***************************************************************************/
INTRO:
{
  -G1-
  e||--------------------------------------------------------------------|
  B||--------------------------------------------------------------------|
  G||--------------5-----------------------------------------------------|
  D||-8p7p5--------------------------------------------------------------|
  A||-------h8p7h8---8p7p0h7h8-------------------------------------------|
  D||--------------------------------------------------------------------|
}

/***************************************************************************/
CHORUS:
{
  -G1-
  e||--------------------------------------------------------------------|
  B||--------------------------------------------------------------------|
  G||--------10-10-10-10/12-12-12\7-77777/99-------------5---------------|
  D||-000000---------------------------------8-7-5-----------------------|
  A||-000000--8--8--9--9/10-10-10\5-55555/77-------8-7-8---8p7p0h7h8-----|
  D||-000000-------------------------------------------------------------|

  -G2-
  e||--------------------------------------------------------------------|
  B||--------------------------------------------------------------------|
  G||--------------------------------------------------------------------|
  D||-000000000000000-55555555555555-------------------------------------|
  A||-000000000000000-55555555555555-------------------------------------|
  D||-000000000000000-55555555555555-------------------------------------|

  -G1-
  e||--------------------------------------------------------------------|
  B||--------------------------------------------------------------------|
  G||--------------------------------------------------------------------|
  D||-1010101010101010101010--10*10*10*-10101010101010101010101010-------|
  A||--8-8-8-8-8-8-8-8-8-8-8---8*-8*-8*--8-8-8-8-8-8-8-8-8-8-8-8-8-------|
  D||--8-8-8-8-8-8-8-8-8-8-8---8*-8*-8*--8-8-8-8-8-8-8-8-8-8-8-8-8-------|

  -G2- /*Quick*/
  { e||--------------------------------------------------------------------|
    B||--------------------------------------------------------------------|
    G||-0-10-9-0-12-0-10-0-9-0-9h10p9--0-10-9-0-12-0-9h10p9-------9-10-----|
    D||-----------------------------------------------------10-12----------|
    A||--------------------------------------------------------------------|
    D||--------------------------------------------------------------------|

    e||--------------------------------------------------------------------|
    B||--------------------------------------------------------------------|
    G||-0-10-9-0-12-0-10-0-9-0-9h10p9--0-10-9-0-12-0-10-0-9h10u9-----------|
    D||----------------------------------------------------------10-12-----|  
    A||--------------------------------------------------------------------|
    D||--------------------------------------------------------------------|
  }
  
  -G1-
  e||----------------------------------------------------------------------|
  B||----------------------------------------------------------------------|
  G||--------10-10\5-5/7-7-7/9-9-9-9-------------5-------------------------|
  D||-000000--------------------------8-7-5--------------------------------|
  A||-000000--8--8\3-3/5-5-5/7-7-7-7--------8-7-8--8-7-0-7-8---------------|
  D||-000000---------------------------------------------------------------|

  -G2-
  e||--------------------------------------------------------------------|
  B||--------------------------------------------------------------------|
  G||--------------------------------------------------------------------|
  D||-000000000000000-55555555555555-------------------------------------|
  A||-000000000000000-55555555555555-------------------------------------|
  D||-000000000000000-55555555555555-------------------------------------|

  -G1-
  e||--------------------------------------------------------------------|
  B||--------------------------------------------------------------------|
  G||--------------------------------------------------------------------|
  D||-1010101010101010101010--10*10*10*-10101010101010101010101010-------|
  A||--8-8-8-8-8-8-8-8-8-8-8---8*-8*-8*--8-8-8-8-8-8-8-8-8-8-8-8-8-------|
  D||--8-8-8-8-8-8-8-8-8-8-8---8*-8*-8*--8-8-8-8-8-8-8-8-8-8-8-8-8-------|

  -G2- /*Quick*/
  { e||--------------------------------------------------------------------|
    B||--------------------------------------------------------------------|
    G||-0-10-9-0-12-0-10-0-9-0-9h10p9--0-10-9-0-12-0-9h10p9-------9-10-----|
    D||-----------------------------------------------------10-12----------|
    A||--------------------------------------------------------------------|
    D||--------------------------------------------------------------------|

    e||--------------------------------------------------------------------|
    B||--------------------------------------------------------------------|
    G||-0-10-9-0-12-0-10-0-9-0-9h10p9--0-10-9-0-12-0-10-0-9h10u9-----------|
    D||----------------------------------------------------------10-12-----|  
    A||--------------------------------------------------------------------|
    D||--------------------------------------------------------------------|
  }

}

/***************************************************************************/
VERSE:
{ -G1-
  e||--------------------------------------------------------------------|
  B||--------------------------------------------------------------------|
  G||--------------------------------------------------------------------|
  D||--------------------------------------------------------------------|
  A||-555555555555777777888888-555555555555777777888888------------------|
  D||--------------------------------------------------------------------|
      ........................ ........................

  -G2-
  e||--------------------------------------------------------------------|
  B||--------------------------------------------------------------------|
  G||--------------------------------------------------------------------|
  D||-555555555555555555555555-888888888888888888888888------------------|
  A||-555555555555555555555555-888888888888888888888888------------------|
  D||-555555555555555555555555-888888888888888888888888------------------|
      ........................ ........................

  -G1--G2-
  e||--------------------------------------------------------------------|
  B||--------------------------------------------------------------------|
  G||--------------------------------------------------------------------|
  D||-000000-0-000-0-000000-0-000-0-000000-0-000-0-000000-0-000-0--------|
  A||-000000-0-000-0-000000-0-000-0-000000-0-000-0-000000-0-000-0--------|
  D||-000000-0-000-0-000000-0-000-0-000000-0-000-0-000000-0-000-0--------|
      ......   ...   ......   ...   ......   ...   ......   ...

  -G1-
  e||--------------------------------------0~-----------------------------|
  B||--------------------------------------0~-----------------------------|
  G||--------------------------------------0~-----------------------------|
  D||--------------------------------------8~-----------------------------|
  A||-555555555555777777888888-55555555555-8~-----------------------------|
  D||--------------------------------------8~-----------------------------|
      ........................ ........................

  -G2-
  e||---------------------------------------0~---------------------------|
  B||---------------------------------------0~---------------------------|
  G||---------------------------------------0~---------------------------|
  D||-555555555555555555555555-888888888888-8~---------------------------|  
  A||-555555555555555555555555-888888888888-8~---------------------------|
  D||-555555555555555555555555-888888888888-8~---------------------------|
      ........................ ............

  -G1--G2-
  e||--------------------------------------------------------------------|
  B||--------------------------------------------------------------------|
  G||--------------------------------------------------------------------|
  D||-000-0000-0000-00-0-0-000-0000-0000-00-0-0--------------------------|
  A||-000-0000-0000-00-0-0-000-0000-0000-00-0-0--------------------------|
  D||-000-0000-0000-00-0-0-000-0000-0000-00-0-0--------------------------|
      ... .... .... .. . . ... .... .... .. . .

  e||--------------------------------------------------------------------|
  B||--------------------------------------------------------------------|
  G||--------------------------------------------------------------------|
  D||-000-0000-0000-00-0-0-000-0000-0000-00-0-0*-------------------------|
  A||-000-0000-0000-00-0-0-000-0000-0000-00-0-0*-------------------------|
  D||-000-0000-0000-00-0-0-000-0000-0000-00-0-0*-------------------------|
      ... .... .... .. . . ... .... .... .. . .
}

/***************************************************************************/

  REPEAT CHORUS RIFF

/***************************************************************************/
BRIDGE:
{ -G1-
  e||--------------------------------------------------------------------|
  B||--------------------------------------------------------------------|
  G||--------------------------------------------------------------------|
  D||-0~-----------------------------------------------------------------|
  A||-0~-----------------------------------------------------------------|
  D||-0~-----------------------------------------------------------------|

  -G2-
  { e||------------------------------------------------------------------|
    B||------------------------------------------------------------------|
    G||------------------------------------------------------------------|
    D||-00-------00--------00---------00---------------------------------|
    A||-00-7*7/8-00-8*8/10-00-10*10\8-00-8-7b----------------------------|
    D||-00-------00--------00---------00---------------------------------|
        ..       ..        ..         ..

    e||------------------------------------------------------------------|
    B||------------------------------------------------------------------|
    G||------------------------------------------------------------------|
    D||-00-------00--------00---------00-8-7b----------------------------|
    A||-00-7*7/8-00-8*8/10-00-10*10\8-00---------------------------------|
    D||-00-------00--------00---------00---------------------------------|
        ..       ..        ..         ..

    e||------------------------------------------------------------------|
    B||------------------------------------------------------------------|
    G||------------------------------------------------------------------|
    D||-00-------00--------00---------00---------------------------------|
    A||-00-7*7/8-00-8*8/10-00-10*10\8-00-0h7h8-0h8h10--------------------|
    D||-00-------00--------00---------00---------------------------------|
        ..       ..        ..         ..
  }

  -G1-
  e||--------------------------------------------------------------------|
  B||--------------------------------------------------------------------|
  G||--------------------------------------------------------------------|
  D||-~-----------------------------888888-------------------------------|
  A||-~-----------------------------888888-------------------------------|
  D||-~-----------------------------888888-------------------------------|
                                    ......

  -G2-
  e||--------------------------------------------------------------------|
  B||--------------------------------------------------------------------|
  G||--------------------------------------------------------------------|
  D||-00-------00--------00---------8-7-5--------------------------------|
  A||-00-7*7/8-00-8*8/10-00-10*10\8-------8-7b---------------------------|
  D||-00-------00--------00----------------------------------------------|
      ..       ..        ..

  -G1-
  e||--------------------------------------------------------------------| \
  B||--------------------------------------------------------------------|  |
  G||--------------------------------------------------------------------|  |
  D||-00-0-0-0*------00-0-0---------88-8-8-8-7-5-7-5---88-8-8-8-7-5------|  |
  A||-00-0-0-0*------00-0-0-5*5*5/7-88-8-8-----------8-88-8-8-------8-7b-|  |
  D||-00-0-0-0*------00-0-0---------88-8-8-------------88-8-8------------|  |
      .. . . .       .. . .         .. . .             .. . .                \ (2x)
  -G2-                                                                       /
  e||--------------------------------------------------------------------|  |
  B||--------------------------------------------------------------------|  |
  G||--------------------------------------------------------------------|  |
  D||-00-0-0---------00-0-0---------88-8-8-8*----------88-8-8-8-7-5------|  |
  A||-00-0-0-7*7*7/8-00-0-0-7*7*7/8-88-8-8-8*----------88-8-8-------8-7b-|  |
  D||-00-0-0---------00-0-0---------88-8-8-8*----------88-8-8------------|  |
      .. . .         .. . .         .. . . .           .. . .              /

  -G1-
  e||--------------------------------------------------------------------| \
  B||--------------------------------------------------------------------|  |
  G||--------------------------------------------------------------------|  |
  D||-00-0-0---------00-0-0---------88-8-8-8-7-5-7-5---88-8-8-8-7-5------|  |
  A||-00-0-0-5*5*5/7-00-0-0-5*5*5/7-88-8-8-----------8-88-8-8-------8-7b-|  |
  D||-00-0-0---------00-0-0---------88-8-8-------------88-8-8------------|  |
      .. . .         .. . .         .. . .             .. . .                \ (2x)
  -G2-                                                                       /
  e||---------------------------------------------------------------------| |
  B||---------------------------------------------------------------------| |
  G||---------------------------------------------------------------------| |
  D||-00-0-0---------00-0-0---------88-8-8------------0-88-8-8-8-7-5------| |
  A||-00-0-0-7*7*7/8-00-0-0-7*7*7/8-88-8-8-10-8-7-8-7---88-8-8-------8-7b-| |
  D||-00-0-0---------00-0-0---------88-8-8--------------88-8-8------------| |
      .. . .         .. . .         .. . .              .. . .             /
}

/***************************************************************************/
OUTRO
{ -G1--G2-
  e||--------------------------------------------------------------------|
  B||--------------------------------------------------------------------|
  G||--------------------------------------------------------------------|
  D||-000-0000-0000-00-0-0-000-0000-0000-00-0-0--------------------------|
  A||-000-0000-0000-00-0-0-000-0000-0000-00-0-0--------------------------|
  D||-000-0000-0000-00-0-0-000-0000-0000-00-0-0--------------------------|
      ... .... .... .. . . ... .... .... .. . .

  e||--------------------------------------------------------------------|
  B||--------------------------------------------------------------------|
  G||--------------------------------------------------------------------|
  D||-000-0000-0000-00-0-0-000-0000-0000-00-0-0*-------------------------|
  A||-000-0000-0000-00-0-0-000-0000-0000-00-0-0*-------------------------|
  D||-000-0000-0000-00-0-0-000-0000-0000-00-0-0*-------------------------|
      ... .... .... .. . . ... .... .... .. . .
}





Comments


Popular Blessthefall tabs & chords
To Hell And Back Bass Tabs
Wait For Tomorrow Chords
Albright Tabs
I Wouldnt Quit If Everybody Quit Tabs
Meet Me At The Gates Tabs
Rise Up 1 Tabs
Rise Up 3 Tabs
Theres A Fine Line Between Love And Hate Tabs
Times Like These 2 Tabs
To Hell And Back 1 Tabs


Song lyrics



↑ Back to top | Tablatures and chords are parodies/interpretations of the original songs. You may use it for private study, scholarship, research or language learning purposes only
© 2014 AZChords.com Contact us | Privacy policy | DMCA | Add/correct tabs | Request tabs | Top 50 tabs