» » »

Blessthefall, Hey Baby Heres That Song You Wanted Bass tabs (ver.1)

Artists:  A B C D E F G H I J K L M N O P Q R S T U V W X Y Z # 

Hey Baby Heres That Song You Wanted Bass tabs (ver.1)

Blessthefall Tabs
 Rating:
4/5 (4 votes)
Hey Baby Heres That Song You Wanted lessons Tabs too difficult? Try these video lessons and learn fast
                		Hey Baby, Here's That Song You Wanted


Tuning: C#ADG

Intro (0:00-0:21)
G|----------------------------------------------------|-------------------|
D|----------------------------------------------------|-------------------|
A|-----------------------2-22-22-2-2------------------|-------------------|x2
C|2-22-22-0-0-5-55-55-5-5------------7-7777-7777-7777-|-7-7777-77-7-------|
                                                      (2nd ending)
Verse (0:22-0:42)
G|------------------------------------------------------------------------|
D|------------------------------------------------------------------------|
A|-----------------------222222222222222222222222-------------------------|x2
C|2222222222-55555555555--------------------------------------------------|

Chorus (0:43-1:02)
G|----------------------------------------------------|-------------------|
D|----------------------------------------------------|-------------------|
A|-----------------------2-22-22-2-2------------------|-------------------|x2
C|2-22-22-0-0-5-55-55-5-5------------7-7777-7777-7777-|-7--7--7--7--------|

Verse 2 (1:03-1:24)
G|--------------------------------------------------------------------------|
D|--------------------------------------------------------------------------|
A|-----------------------222222222222222222222222---------------------------|x2
C|2222222222-555555555555---------------------------------------------------|

Chorus (1:25-1:44)
G|----------------------------------------------------|-------------------|
D|----------------------------------------------------|-------------------|
A|-----------------------2-22-22-2-2------------------|-------------------|x2
C|2-22-22-0-0-5-55-55-5-5------------7-7777-7777-7777-|-7--7--7--7--------|

Bridge (1:45-2:21)(10's not 1 and 0's)
G|---|---------------------------------------------------------------------|
D|---|---------------------------------------------------------------------|
A|---|-22-222-222-222-2----------------------------------------------------|x2
C|5-7|-----------------55-555-555-555-5-1111111111111-00000000000000-------|
 (1st)

G|------------------------------------------------------------------------|
D|------------------------------------------------------------------------|
A|22-222-222-222-2--------------------------222222222222222---------------|
C|----------------7-7-7--2------------------------------------------------|

Chorus (2:22-2:41)
G|------------------------------------------------------------------------|
D|------------------------------------------------------------------------|
A|-----------------------2-22-22-2-2--------------------------------------|
C|2-22-22-0-0-5-55-55-5-5------------7-7-7-7------------------------------|
Outro (2:42-3:16)
G|------------------------------------------------------------------------|
D|------------------------------------------------------------------------|
A|--------------------------------22-222-222-22-2-------------------------|
C|22-222-222-22-2-55-555-555-55-5-----------------77-777-777-777-7--------|

G|------------------------------------------------------------------------|
D|------------------------------------------------------------------------|
A|--------------------------------22-222-222-22-2-------------------------|
C|22-222-222-22-2-55-555-555-55-5----------------77-777-777-7--7--7\2-----|

| /  slide up
| \  slide down
| h  hammer-on
| p  pull-off
| ~  vibrato
| +  harmonic
| x  Mute note
            
Submit corrections

comments powered by Disqus
↑ Back to top | Blessthefall Bass for Hey Baby Heres That Song You Wanted. Lyrics for acoustic guitar and electric guitar. Tablatures and chords are parodies/interpretations of the original songs. You may use it for private study, scholarship, research or language learning purposes only