» » »

Blessthefall, God Wears Gucci Tabs (ver.1)

Artists:  A B C D E F G H I J K L M N O P Q R S T U V W X Y Z # 

God Wears Gucci Tabs (ver.1)

Blessthefall Tabs
 Rating:
4/5 (4 votes)
God Wears Gucci lessons Tabs too difficult? Try these video lessons and learn fast
                (Intro)
intro(figure out how many times to play each note im to lazy to count it out..jus 
listen to the song)
e|---------------------------------------------------------------------------|
B|--------(or)-5--3----------------------------------------------------------|
G|-9--7----------------------------------------------------------------------|
D|---------------------------------------------------------------------------|
A|---------------------------------------------------------------------------|
D|---------------------------------------------------------------------------|

e|--------------------------------------------------------------------------|
B|--------------------------------------------6-----------------------------|
G|--9---------10------------------------------9-----------------------------|
D|--x--(x16)--x--(x16)---0--0--0--0--0--0-------(x6)---8--------------------|
A|--7---------8----------0--0--0--0--0--0--------------8-(x11)--------------|
D|-----------------------0--0--0--0--0--0--------------8--------------------|
                         .  .  .  .  .  .              .
chorus(figure out the strumming)
e|--------------------------------------------------------------------------|
B|--------------------------------------------------------------------------|
G|--------------------------------------------------------------------------|
D|-0---8---5----------------------------------------------------------------|
A|-0---8---5----------------------------------------------------------------|
D|-0---8---5----------------------------------------------------------------|

e|---------------------------------------------------------------------------|
B|---------6~----------------------------------------------------------------|
G|---------9~-------------12~------------------------------------------------|
D|-00--0----------88--8---x----(repeat this part 3 times)--------------------|
A|-00--0----------88--8---10~------------------------------------------------|
D|-00--0----------88--8------------------------------------------------------|
   ..  .          ..  .
e|--------------------------------------------------------------------------|
B|--------------------------------------------------------------------------|
G|------------------------------------------------------1414141414----------|
D|-55555555555588888888888000000000000005555555555555---x-x-x-x-x-----------|
A|-55555555555588888888888000000000000005555555555555---1212121212----------|
D|-55555555555588888888888000000000000005555555555555-----------------------|
   ..................................................

then repeat the chorus

..then
e|-----------------------12-12-12-12-12-12-10h12-12-15-15-15-15-15-15-15-15--|
B|---------------------------------------------------------------------------|
G|-10-10~--5--5\7~--9-10-----------------------------------------------------|
D|-x--x----x--x-x---x-x------------------------------------------------------|
A|-8--8~---3--3\5~--7-8------------------------------------------------------|
D|---------------------------------------------------------------------------|

e|-12-12-12-12-12-12-12-12-13-13-13-13-13-13-13-13-12-12-12-12-12-12-12-12--|
B|--------------------------------------------------------------------------|
G|--------------------------------------------------------------------------|
D|--------------------------------------------------------------------------|
A|--------------------------------------------------------------------------|
D|--------------------------------------------------------------------------|

e|15-15-15-15-15-15-15-15------12-12-12-12-12-12-12-15-15-15-15-15-15-15-15--|
B|---------------------------------------------------------------------------|
G|-----------------------10h12-----------------------------------------------|
D|---------------------------------------------------------------------------|
A|---------------------------------------------------------------------------|
D|---------------------------------------------------------------------------|

e|--------------------------------------------------------------------------|
B|--------------------------------------------------------------------------|
G|-14141414141414141414141414141414/10--10\15151515151515151515151515151515-|
D|-x x x x x x x x x x x x x x x x--x---x--x x x x x x x x x x x x x x x x--|
A|-12121212121212121212121212121212/8---8\13131313131313131313131313131313--|
D|--------------------------------------------------------------------------|

e|--------------------------------------------------------------------------|
B|--------------------------------------------------------------------------|
G|-12121212121212121212121212121212---15151515151515151515151515151515------|
D|-x x x x x x x x x x x x x x x x----x x x x x x x x x x x x x x x x-------|
A|-10101010101010101010101010101010---13131313131313131313131313131313------|
D|--------------------------------------------------------------------------|
..then repeat this whole part once more..then

outro
e|--------------------------------------------------------------------------|
B|--------------------------------------------------------------------------|
G|-----10--10~-5-5\7~--9--10--14~--12~--10--10~-5-5\7~--9--10--10~----------|
D|-0~--x---x---x-x-x---x--x---x----x----x---x---x-x-x---x--x---x------------|
A|-0~--8---8~--3-3\5~--7--8---12~--10~--8---8~--3-3\5~--7--8---8~-----------|
D|-0~-----------------------------------------------------------------------|
            
Submit corrections

comments powered by Disqus
↑ Back to top | Blessthefall Tabs for God Wears Gucci. Lyrics for acoustic guitar and electric guitar. Tablatures and chords are parodies/interpretations of the original songs. You may use it for private study, scholarship, research or language learning purposes only