» » »

Could Tell A Love Tabs (ver.5)

Artists:  A B C D E F G H I J K L M N O P Q R S T U V W X Y Z # 

Could Tell A Love Tabs (ver.5)

Blessthefall
Rating:
0/5 (0 votes)

Hard to play? Try these video lessons and learn fast.
                (Intro)
e|------------------------------------------------------|
B|------------------------------------------------------|
G|------------------------------------------------------|
D|-------7-8---5-7---7-5-3----------7-8---5-7---7p3-7p3-|
A|-------------------------7-5-3------------------------|
D|----00-----0-----0-------------00-----0-----0---------|
pm.   ..     .     .             ..     .     .

e|------------------------------------------------------|
B|------------------------------------------------------|
G|------------------------------------------------------|
D|-------7-8---5-7---7-5-3----------7-8---5-7~----------|
A|-------------------------7-5-3------------------------|
D|----00-----0-----0-------------00-----0---------------|
pm.   ..     .     .             ..     .     

e|------------------------------------------------------|
B|------------------------------------------------------|
G|------------------------------------------------------|
D|-------7-8---5-7---7-5-3----------7-8---5-7---7p3-7p3-|x4
A|-------------------------7-5-3------------------------|
D|----00-----0-----0-------------00-----0-----0---------|
pm.   ..     .     .             ..     .     .
            
Hard to play? Try these video lessons and learn fast. | Correct




comments powered by Disqus
↑ Back to top | Tablatures and chords are parodies/interpretations of the original songs. You may use it for private study, scholarship, research or language learning purposes only