» » »

Blessthefall, Could Tell A Love Tabs (ver.4)

Artists:  A B C D E F G H I J K L M N O P Q R S T U V W X Y Z # 

Could Tell A Love Tabs (ver.4)

Blessthefall Tabs
 Rating:
3.6/5 (7 votes)
Could Tell A Love lessons Tabs too difficult? Try these video lessons and learn fast
                i noticed that this tab wasnt up so i thought i would put it up for every1 plz rate and comment


intro

----------------------------------------------------------------|
----------------------------------------------------------------|
----------------------------------------------------------------|
---7p0-8p0---5p0-7p0---7p0-3p0------7p0-8p0--5p0-7p0---8p0-8p0--|x2
----------------------------------------------------------------|
00---------0--------0-----------00---------0---------0----------|
..         .        .           ..         .         .
first part of the first verse

----------------------------------------------------------------|
----------------------------------------------------------------|
----10---------------------------------10-----------------------|
-00-x-----000-0000-00---------------00-x-----000-0000-00-00--x2-|
-00-8-----000-0000-00-8-8-7---5-x2--00-8-----000-0000-00-00-----|
-00-------000-0000-00-------5-------00-------000-0000-00-00-----|

second part of the first verse

-------------------------------------------------------------------------|
--------------------------10p6-7p6----10p6-7p6------10p6-7p6----10p6-7p6-|
-----------------x4------------------------------------------------------|
-9p0-7p0-5p0-7p0-------00----------00----------00-0----------00----------|
-----------------------00----------00----------00-0----------00----------|
-----------------------00----------00----------00-0----------00----------|

-------|
-------|
-------|
-00----|x2 on the second time around the second part twice.listen to the song
-00----|
-00----|

pre-chorus
------------------|
------------------|
------------------|
-33333333-55555555|
-33333333-55555555|
-33333333-55555555|

chorus is just the intro 3 times and at the end it goes like this

-------------------------------------------------------------------|
-------------------------------------------------------------------|
-10101010101010101010101010101010-12121212121212121212121212121212-|
-x-x-x-x-x-x-x-x-x-x-x-x-x-x-x-x--x-x-x-x-x-x-x-x-x-x-x-x-x-x-x-x--|
-8-8-8-8-8-8-8-8-8-8-8-8-8-8-8-8--10101010101010101010101010101010-|
-------------------------------------------------------------------|

second verse do the part after the pinch harmonic 4 times

----------------------------------------------------------------------------|
----------------------------------------------------------------------------|
-------------------x4---------------------------10-10-----------------10-12-|
-0000-000-0-0-0000---------0000-7p0-5p0-7p0-5p0-------7p0-5p0-7p0-5p0-------|
-0000-000-0-0-0000-----5*--0000---------------------------------------------|
-0000-000-0-0-0000---------0000---------------------------------------------|

then the guitar comes in with this

----------------------------------|
----------------------------------|
----------------------------------|
-10101010101010101010101010101010-|
-x-x-x-x-x-x-x-x-x-x-x-x-x-x-x-x--|
-8-8-8-8-8-8-8-8-8-8-8-8-8-8-8-8--|


then play the last chorus 8 times then u do this

----------------------------------------------------------------------|
----------------------------------------------------------------------|
-10101010101010101010101010101010-12121212121212121212121212121212-12-|
-x-x-x-x-x-x-x-x-x-x-x-x-x-x-x-x--x-x-x-x-x-x-x-x-x-x-x-x-x-x-x-x---x-|
-8-8-8-8-8-8-8-8-8-8-8-8-8-8-8-8--10101010101010101010101010101010-10-|
----------------------------------------------------------------------|
            
Submit corrections

comments powered by Disqus
↑ Back to top | Blessthefall Tabs for Could Tell A Love. Lyrics for acoustic guitar and electric guitar. Tablatures and chords are parodies/interpretations of the original songs. You may use it for private study, scholarship, research or language learning purposes only